» » »

Tercipta Untukku Tabs (ver.1)

Artists:  A B C D E F G H I J K L M N O P Q R S T U V W X Y Z # 

Tercipta Untukku Tabs (ver.1)

Ungu
Rating:
5/5 (3 votes)

Hard to play? Try these video lessons and learn fast.
                Pisang_boy(5pd '06)

Malaysia boleh!!
S.M.K.S 19
S.alam....
hahahahahahahahahha.....

lame gile aku carik tab neh enjoy dowh
Tercipta utk ku_Ungu

ade bhagian yg x siap.....
malas ah bwat....
korang carik sndiri ahahahahha....
 
intro:
 Guitar 1
e|4-----4-2---7--0-----0-0-4--5-----------0----------0---0---2---0-2---|
B|----5-----4--------2------4-2-----2-0-0---0------0---0---0---0-----4~|
G|4-4------------1-1-----1-4------2---1-------2--2-1-------------------|
D|------------------------------2--------------------------------------|
A|---------------------------------------------------------------------|
E|---------------------------------------------------------------------|

 bass
B|---------------------------------------------------------------------|
G|---------------------------------------------------------------------|
D|---------------------------------------------------------------------|
A|7~~~~~~~~~6~~~4~~~~~~~2~~~~~---------------------------------9-7-9-6~|
E|----------------------------5~~~~~~~4~~~2~~~7~~~~~~~~~~~~~~~~--------|

 verse:
     Guitar 1
    e|------0-----0-----0-|
    B|----0-----0-----0---|
    G|--------------------|
    D|--2-----1-----------|
    A|2-------------4-----|
    E|--------------------|
     Guitar 2(clean)
    e|--------------------|
    B|--------------------|
    G|9~~~~~~~8~~~~~9~~~~~|gitar 2 ni saje je letak
    D|9~~~~~~~9~~~~~9~~~~~|
    A|7~~~~~~~6~~~~~------|
    E|--------------9~~~~~|
     Bass
    B|--------------------|
    G|4~~~~~4~~~~~~~------|
    D|2~~~~~1~~~~~~~6~~~~~|
    A|--------------4~~~~~|
    E|--------------------|
 Menatap indahnya senyuman di wajahmu,

    Guitar 1
    e|------------------------------|
    B|------7~~~~~7~~~~~7~~~--5-7---|
    G|----6~~~~~6~~~~~6~~~~~8-----8~|
    D|--7~~~~~7~~~~~7~~~~~~~--------|
    A|------------------------------|
    E|------------------------------|
     Guitar 2 (clean)
    e|---------------------|
    B|---------------------|
    G|---------------------|
    D|-7~~~~~~~~~9~~~~~~~~~|
    A|-7~~~~~~~~~9~~~~~~~~~|
    E|-5~~~~~~~~~7~~~~~~~~~|
     BASS
    B|---------------------|
    G|---------------------|
    D|----------4~~~~~~~~~~|
    A|-7~~~~~~~~2~~~~~~~~~~|
    E|-5~~~~~~~~-----------|
 Membuat ku terdiam dan terpaku,

      Guitar 1
    e|------0-----0-----0-|
    B|----0-----0-----0---|
    G|--------------------|
    D|--2-----1-----------|
    A|2-------------4-----|
    E|--------------------|
          Guitar 2(clean)
    e|--------------------|
    B|--------------------|
    G|9~~~~~~~8~~~~~9~~~~~|
    D|9~~~~~~~9~~~~~9~~~~~|
    A|7~~~~~~~6~~~~~------|
    E|--------------9~~~~~|
     Bass
    B|--------------------|
    G|4~~~~~4~~~~~~~------|
    D|2~~~~~1~~~~~~~6~~~~~|
    A|--------------4~~~~~|
    E|--------------------|
Mengeti akan hadirnya cinta terindah

    Guitar 1
    e|---------------------------------|
    B|------7~~~~~7~~~~~7~~~~~7--5-----|
    G|----6~~~~~6~~~~~6~~~~~6--8---8-4~|
    D|--7~~~~~7~~~~~7~~~~~7~~----------|
    A|---------------------------------|
    E|---------------------------------|
     Guitar 2 (clean)
    e|---------------------|
    B|---------------------|
    G|---------------------|
    D|-7~~~~~~~~~9~~~~~~~~~|
    A|-7~~~~~~~~~9~~~~~~~~~|
    E|-5~~~~~~~~~7~~~~~~~~~|
     BASS
    B|---------------------|
    G|---------------------|
    D|----------4~~~~~~~~~~|
    A|-7~~~~~~~~2~~~~~~~~~~|
    E|-5~~~~~~~~-----------|
    E|
Saat kau peluk mesra tubuhku

Brigde:
ha..... carik sndiri...
e|
B|
G|
D|
A|
E|
Banyak kata.....

e|
B|
G|
D|
A|
E|
yang tak dapat ku ugkapkan

e|
B|
G|
D|
A|
E|
kepada dirimu


Reff:

e|
B|
G|
D|
A|
E|
Aku ingin engkau slalu hadir dan temani aku

e|
B|
G|
D|
A|
E|
Disetiap Lagkah Yang meyakiniku

e|
B|
G|
D|
A|
E|
Kau tercipta untukku sepanjang hidupku 




solo:GUITAR 1
e|------------7-8~12~---12-12-14~14h16------------
B|-------9-10--------13~---------------12~9h10-9~-
G|-----9------------------------------------------
D|9-10--------------------------------------------
A|------------------------------------------------
E|------------------------------------------------

e|------------7-8~12~---12~11h12-11------|
B|-------9-10--------13~-----------11-11-|
G|-----9---------------------------------|
D|9-10-----------------------------------|
A|---------------------------------------|
E|---------------------------------------|

e|14-12-11-------------14-12-11----------------|
B|---------14-12----------------14-12----------|(pick very fast)
G|---------------14-13----------------14-13-13~|(dont pick your nose)
D|---------------------------------------------|
A|---------------------------------------------|
E|---------------------------------------------|

Guitar 2:
(soft distortion)
e|---------------------------------------------|
B|---------------------------------------------|
G|---------------------------------------------|
D|--------------------------------------9~~~~~~|
A|--------------------------------------9~~~~~~|
E|--------------------------------------7~~~~~~|

Reff:GUITAR 2
guna chord progeseion(aku x reti eje ah)
(soft distortion)
e|---------------------------------------------
B|---------------------------------------------
G|----------99999999998888888888888999999999999
D|----------99999999999999999999999999999999999
A|----------77777777776666666666666------------
E|---------------------------------999999999999
aku ingin engkau slalu hadir dan temani aku

(continue)
e|-----------------------------------------------------------
B|-----------------------------------------------------------
G|-----------------------------------------------------------
D|99999999999977777777777766666666666664444444444444999999999
A|99999999999977777777777777777777777774444444444444999999999
E|77777777777755555555555544444444444442222222222222777777777
   Disetiap langkah yang meyakiniku kau tercipta untukku.....

(continue)
e|---------------------------------------------
B|---------------------------------------------
G|----------99999999998888888888888999999999999
D|99~~~~~~~~99999999999999999999999999999999999
A|99~~~~~~~~77777777776666666666666------------
E|77~~~~~~~~-----------------------999999999999
meski waktu akan mampu memanggil sluruh ragaku

(continue)
e|-----------------------------------------------------------
B|-----------------------------------------------------------
G|-----------------------------------------------------------
D|99999999999977777777777766666666666664444444444444999999999
A|99999999999977777777777777777777777774444444444444999999999
E|77777777777755555555555544444444444442222222222222777777777
kuingin kau tahu ku slalu milikmu yang mencintaimu sepanjang hidupku
            
Hard to play? Try these video lessons and learn fast. | Correct




comments powered by Disqus
↑ Back to top | Tablatures and chords are parodies/interpretations of the original songs. You may use it for private study, scholarship, research or language learning purposes only