>
 >
Dengan Nafasmu

Dengan Nafasmu Bass Tabs

Ungu - Dengan Nafasmu chords, tabs, tablatures, lyrics

Guitar lessons | Add/correct | Request | Top 50 tabs Artists:  A B C D E F G H I J K L M N O P Q R S T U V W X Y Z 0-9

Dengan Nafasmu Bass Tabs – Ungu

CD, Sheet music, Poster

Do you like Dengan Nafasmu? Share with your friends now
Bass TabsChordsUkulele
-------------------------------------------------------------------------------
-------------------------------------------------------------------------------


Tuning: standard BEADG

Intro (after 2 lines):
G|---------------------------------------------------------------------------|
D|---------------------------------------------------------------------------|
A|------5--5--------5--5--------5--5--------5--5-----------------------------|
E|-5--5------5-5--5------5-5--5------5-5--5------5-5-------------------------|
B|---------------------------------------------------------------------------|

G|---------------------------------------------------------------------------|
D|---------------------------------------------------------------------------|
A|---------------------------5--5--------5--5-------5------------------------|
E|-5-3--3--------3--3------5------5-5--5-------5--5--------------------------|
B|--------3-3--3------3-3----------------------------------------------------|

Verse 1 (a line pause for bass, then):
G|---------------------------------------------------------------------------|
D|---------------------------------------------------------------------------|
A|---------------------------5--5--------5--5-------5------------------------|
E|-5-5--3--------3--3------5------5-5--5-------5--5--------------------------|
B|--------3-3--3------3-3----------------------------------------------------|

G|----------------------------7----------------------------------------------|
D|--------------------------7------------------------------------------------|
A|---------------------------------------------------------------------------|
E|---------------------------------------------------------------------------|
B|---------------------------------------------------------------------------|

G|---------------------------------------------------------------------------|
D|---------------------------------------------------------------------------|
A|------------------------------5--5--------5--5-----5-----------------------|
E|-5--5-3--3--------3--3------5------5-5--5------5-5---5---------------------|
B|-----------3-3--3------3-3-------------------------------------------------|

Bridge:
G|---------------------------------------------------------------------------|
D|---------------------------------------------------------------------------|
A|-2--2--------2--2------2------4-4--4------4-4------------------------------|
E|------2-2--2------2-2----2--2--------2--2------2---------------------------|
B|---------------------------------------------------------------------------|

G|---------------------------------------------------------------------------|
D|---------------------------------------------------------------------------|
A|---------------------------------------------------------------------------|
E|-3--3--------3--3--------5--5--------5-------------------------------------|
B|------3-3--3------3-3--3------5-5--5---------------------------------------|

Chorus:
G|---------------------------------------------------------------------------|
D|--------------4-7----7-4-4--4----------------------------------------------|
A|-5--5------5-------5----------4---5-4------4--4----------------------------|
E|------5--5-------------------------------5------5--------------------------|
B|--------------------------------------7-----------7------------------------|

G|---------------------------------------------------------------------------|
D|---------------------------------------------------------------------------|
A|----------------2-5--5-2---5--5------5--7-5--------------------------------|
E|-3--3--------3-----------3------5--5---------5--5--------------------------|
B|------3--5-3---------------------------------------------------------------|

G|----------------2--2-------------------------------------------------------|
D|--------------4------4-----------------------------------------------------|
A|-5--5------5------------------4--4------4--4-------------------------------|
E|------5--5-------------2-2--2------2--5------5-2---------------------------|
B|---------------------------------------------------------------------------|

G|---------------------------------------------------------------------------|
D|---------------------------------------------------------------------------|
A|------5--5----2-5--5-2---5--5------5--5-------5----------------------------|
E|-3--3------3-----------3------5--5-------5--5------------------------------|
B|---------------------------------------------------------------------------|

Verse 2:
G|---------------------------------------------------------------------------|
D|---------------------------------------------------------------------------|
A|------------------------5--------------------------------------------------|
E|----------------------5----------------------------------------------------|
B|---------------------------------------------------------------------------|

G|---------------------------------------------------------------------------|
D|---------------------------------------------------------------------------|
A|------------------------------5--5--------5--5-----------------------------|
E|-5--5-3--3--------3--3------5------5-5--5------5-5--5----------------------|
B|-----------3-3--3------3-3-------------------------------------------------|

Bridge:
G|---------------------------------------------------------------------------|
D|----------------------------------2----------------------------------------|
A|-2--2--------2--2------2------4-4---h4------4-4----------------------------|
E|------2-2--2------2-2----2--2----------2--2------2-3-----------------------|
B|---------------------------------------------------------------------------|

G|---------------------------------------------------------------------------|
D|---------------------------------------5--5--------------------------------|
A|-----------------------------------3/5------5------------------------------|
E|-3--3--------3--3--------5----5-5-------------7-5--------------------------|
B|------3-3--3------3-3--5----5----------------------------------------------|

Chorus:
G|---------------------------------------------------------------------------|
D|----------------4-7--7-4\----------2---------------------------------------|
A|-5--5--------5-----------------4-----4-------4--4--------------------------|
E|------5-5--5--------------2--2----------2--5------5-2----------------------|
B|---------------------------------------------------------------------------|

G|---------------------------------------------------------------------------|
D|---------------------------------------------------------------------------|
A|------5--5----2-5--5-2---5--5------5--5------------------------------------|
E|-3--3------3-----------5------5--5-------5--5------------------------------|
B|---------------------------------------------------------------------------|

G|---------------------------------------------------------------------------|
D|--------------4-7--7-4\----------------------------------------------------|
A|-5--5------5-----------------4--4------4--4--------------------------------|
E|------5--5--------------2--2------2--5------5-2----------------------------|
B|---------------------------------------------------------------------------|

G|---------------------------------------------------------------------------|
D|---------------------------------------------------------------------------|
A|------5--5----2-5--5-2---5--5-5------5--7-5--------------------------------|
E|-3--3------3-----------3--------5--5---------5--5--------------------------|
B|---------------------------------------------------------------------------|

Solo:
G|------------------------11-------------------------------------------------|
D|---------9-11-12--11--9-----9--9--7----------------------------------------|
A|------------------------9------------9-------------------------------------|
E|-7-------7-9--10--9---7-----7--7----------------------5--------------------|
B|---------------------------------------10---0/5-5-5-7---7\-----------------|

Bridge:
G|---------------------------------------------------------------------------|
D|----------------------------------------------7-7-7-7-7--------------------|
A|---2----4----5----7-----------------------5/7-----------7------------------|
E|-3----5----7----9----12\3--5-5-5-5-5-5-5------------------9-5--------------|
B|---------------------------------------------------------------------------|

Chorus:
G|---------------------------------------------------------------------------|
D|--------------4-7--7-4\----------------------------------------------------|
A|-5--5------5-------------------4--4------4--4------------------------------|
E|------5--5--------------2-2--2------2--5------5-2--------------------------|
B|---------------------------------------------------------------------------|

G|---------------------------------------------------------------------------|
D|---------------------------------------------------------------------------|
A|------5--5----2-5--5-2---5--5-5------5--5----------------------------------|
E|-3--3------3-----------3--------5--5-------5--5----------------------------|
B|---------------------------------------------------------------------------|

G|---------------------------------------------------------------------------|
D|--------------4-7--7-4\----------------------------------------------------|
A|-5--5------5-------------------4--4------4--4------------------------------|
E|------5--5--------------2-2--2------2--5------5-2--------------------------|
B|---------------------------------------------------------------------------|

G|---------------------------------------------------------------------------|
D|---------------------------------------------------------------------------|
A|------5--5----2-5--5-2---5--5-5------5--5----------------------------------|
E|-3--3------3-----------3--------5--5-------5--5----------------------------|
B|---------------------------------------------------------------------------|

===============================================================================
Notes: 

I noticed that the bassist has a 6-stringed bass in the video of this song, but
He is shown so few times that I couldn't figure out how is He playing His part.
That's why I'm not sure about some parts, maybe there are octave differences.
I'm not sure about the solo either: I don't know that He's playing chords (like
I tabbed it) or is it just some kind of effect.


If You have problems with this tab, write Me a mail what's wrong with it
instead of giving it a bad rating! It'd be better for everyone! Thx!


| /  slide up
| \  slide down
| h  hammer-on
| p  pull-off
| ~  vibrato
| +  harmonic
| x  Mute note
===============================================================================





Comments


Popular Ungu tabs & chords
Andai Ku Tahu 1 Chords
Andai Ku Tau Chords
Cinta Yang Lain Chords
Demi Waktu 1 Chords
Maafkan Aku Chords
San Dal Jepit Tabs
Aku Bukan Pilihan Hatimu Ukulele
Ikhlas Ukulele
Surgamu Ukulele
Waktu Yang Di Nanti Ukulele


Song lyrics



↑ Back to top | Tablatures and chords are parodies/interpretations of the original songs. You may use it for private study, scholarship, research or language learning purposes only
© 2014 AZChords.com Contact us | Privacy policy | DMCA | Add/correct tabs | Request tabs | Top 50 tabs