» » »

Andai Ku Tahu Tabs (ver.2)

Artists:  A B C D E F G H I J K L M N O P Q R S T U V W X Y Z # 

Andai Ku Tahu Tabs (ver.2)

Ungu
Rating:
0/5 (0 votes)

Hard to play? Try these video lessons and learn fast.
                -------------------------------------------------------------------------------
                             ANDAI KU TAHU - Ungu
-------------------------------------------------------------------------------

Tuning: Standard

Intro :

Guitar 1 (clean)-


e-----5-----5------|
B-------5-----5----|
G---6-----6-----6--|
D------------------| 4X
A------------------|
E-5----------------|

Verse 1 :

Guitar 1 (clean)-

e-----5-----5-----------5-----5------|
B-------5-----5-----------5-----5----|
G---6-----6-----6-----6-----6-----6--|
D------------------------------------|
A------------------------------------|
E-5-----------------5----------------|


e-----7-----7-----------7-----7------|
B-------7-----7-----------7-----7----|
G---7-----7-----7-----7-----7-----7--|
D------------------------------------|
A------------------------------------|
E-7-----------------7----------------|


e-----7-----7-----------7-----7------|
B-------9-----9-----------9-----9----|
G---9-----9-----9-----9-----9-----9--|
D------------------------------------|
A-7-----------------7----------------|
E------------------------------------|


e-----5-----5-----------5-----5------|
B-------5-----5-----------5-----5----|
G---6-----6-----6-----6-----6-----6--|
D------------------------------------|
A------------------------------------|
E-5-----------------5----------------|


Guitar 2 (clean)-

One stroke only for each chord
A Bm E A

Chorus 1 :

Guitar 1 (clean)-

e-----5-----5-----------5-----5------|
B-------5-----5-----------5-----5----|
G---6-----6-----6-----6-----6-----6--|
D------------------------------------|
A------------------------------------|
E-5-----------------5----------------|


e-----7-----7-----------7-----7------|
B-------7-----7-----------7-----7----|
G---7-----7-----7-----7-----7-----7--|
D------------------------------------|
A------------------------------------|
E-7-----------------7----------------|


e-----7-----7-----------7-----7------|
B-------9-----9-----------9-----9----|
G---9-----9-----9-----9-----9-----9--|
D------------------------------------|
A-7-----------------7----------------|
E------------------------------------|


e-----5-----5-----------5-----5------|
B-------5-----5-----------5-----5----|
G---6-----6-----6-----6-----6-----6--|
D------------------------------------|
A------------------------------------|
E-5-----------------5----------------|


Guitar 2 (clean)-

One stroke only for each chord
A Bm E A

Interval Between Bridge & Verse 2 :

Guitar 1 (distortion) -

Palm mute with last stroke played normally for each chord

A A Bm Bm E E A A


Guitar 2 -

e-5---5---4---4---2---2---4---4----|
B---5---5---5---5---5---5---5---5--|
G----------------------------------|
D----------------------------------|
A----------------------------------|
E----------------------------------|


e-7---7---5---5---4---4---5---5----|
B---5---5---5---5---5---5---5---5--|
G----------------------------------|
D----------------------------------|
A----------------------------------|
E----------------------------------|


e-7---7---5---5---4---4---5---5----|
B---5---5---5---5---5---5---5---5--|
G----------------------------------|
D----------------------------------|
A----------------------------------|
E----------------------------------|


e-5---5---4---4---2---2---4---4---5~-|
B---5---5---5---5---5---5---5---5----|
G------------------------------------|
D------------------------------------|
A------------------------------------|
E------------------------------------|

Verse 2 :

Guitar 2 (clean)-
e-------0~-----------------2~-----------------|
B--------------------0---0--------------------|
G-2---2-------2---2---------------------------|
D---2-----------2------4----------------------|
A---------------------------------------------|
E---------------------------------------------|


e-0------------------0~-|
B---0----0~-------------|
G-----1~-------2---2----|
D----------------2------|
A-----------------------|
E-----------------------|


Chorus 2 :

Guitar 1 (distortion)-

e----------------------------------|
B----------------------------------|
G----------------------------------|
D----------------------------------|
A-4444444444442-5--5555555555554-2-|
E----------------------------------|

e----------------------------------------|
B----------------------------------------|
G----------------------------------------|
D----------------------------------------|
A-5555555555554-2--44444444444444--------|
E----------------------------------------|

Guitar 2 (distortion)-

Stroke continuously
A Bm E A


Bridge :

Guitar 2 (clean) -
Stroke once for each chord
F#m Bm E A
F#m Bm E


Verse 3 :

Guitar 1 (clean)-

e-----5-----5-----------5-----5------|
B-------5-----5-----------5-----5----|
G---6-----6-----6-----6-----6-----6--|
D------------------------------------|
A------------------------------------|
E-5-----------------5----------------|


e-----7-----7-----------7-----7------|
B-------7-----7-----------7-----7----|
G---7-----7-----7-----7-----7-----7--|
D------------------------------------|
A------------------------------------|
E-7-----------------7----------------|


e-----7-----7-----------7-----7------|
B-------9-----9-----------9-----9----|
G---9-----9-----9-----9-----9-----9--|
D------------------------------------|
A-7-----------------7----------------|
E------------------------------------|


e-----5-----5-----------5-----5------|
B-------5-----5-----------5-----5----|
G---6-----6-----6-----6-----6-----6--|
D------------------------------------|
A------------------------------------|
E-5-----------------5----------------|


Guitar 2 (clean)-

One stroke only for each chord
A Bm E A


Chorus 2 till end of song :

Guitar 1 (distortion)-

Play 4X till end

e----------------------------------|
B----------------------------------|
G----------------------------------|
D----------------------------------|
A-4444444444442-5--5555555555554-2-|
E----------------------------------|

e----------------------------------------|
B----------------------------------------|
G----------------------------------------|
D----------------------------------------|
A-5555555555554-2--44444444444444--------|
E----------------------------------------|


Guitar 2 (distortion)-

Play 2X
Stroke continuously
A Bm E A

Play 2X till end (clean)

e-5---5---4---4---2---2---4---4----|
B---5---5---5---5---5---5---5---5--|
G----------------------------------|
D----------------------------------|
A----------------------------------|
E----------------------------------|


e-7---7---5---5---4---4---5---5----|
B---5---5---5---5---5---5---5---5--|
G----------------------------------|
D----------------------------------|
A----------------------------------|
E----------------------------------|


e-7---7---5---5---4---4---5---5----|
B---5---5---5---5---5---5---5---5--|
G----------------------------------|
D----------------------------------|
A----------------------------------|
E----------------------------------|


e-5---5---4---4---2---2---4---4---5~-|
B---5---5---5---5---5---5---5---5----|
G------------------------------------|
D------------------------------------|
A------------------------------------|
E------------------------------------|


Lyric :

Andai kutahu
Kapan tiba ajalku
Ku akan memohon
Tuhan tolong panjangkan umurku

Andai kutahu
Kapan tiba masaku
Ku akan memohon
Tuhan jangan Kau ambil nyawaku

Aku takut
Akan semua dosa dosaku
Aku takut
Dosa yang terus membayangiku

Andai kutahu
MalaikatMu kan menjemputku
Izinkan aku
Mengucap kata tobat padaMu

Aku takut
Akan semua dosa dosaku
Aku takut
Dosa yang terus membayangiku
Ampuni aku
Dari segala dosa dosaku
Ampuni aku
Menangisku bertobat padaMu

Aku manusia
Yang takut neraka
Namun aku juga
Tak pantas di surga

Andai kutahu
Kapan tiba ajalku
Izinkan aku
Mengucap kata tobat padaMu
Aku takut
Akan semua dosa dosaku
Aku takut
Dosa yang terus membayangiku
Ampuni aku
Dari segala dosa dosaku
Ampuni aku
Menangisku bertobat padaMu
Haaa... Haaaa... Haaa... Haaaa...
            
Hard to play? Try these video lessons and learn fast. | Correct




comments powered by Disqus
↑ Back to top | Tablatures and chords are parodies/interpretations of the original songs. You may use it for private study, scholarship, research or language learning purposes only