>
 >
All Because Of You

All Because Of You Guitar Tabs

Ungfila - All Because Of You chords, tabs, tablatures, lyrics

Guitar lessons | Add/correct | Request | Top 50 tabs Artists:  A B C D E F G H I J K L M N O P Q R S T U V W X Y Z 0-9

All Because Of You Guitar Tabs – Ungfila

CD, Sheet music, Poster

Do you like All Because Of You? Share with your friends now
Bass TabsChordsTabsUkulele
ALL BECAUSE OF YOU - GUITAR TAB
        - written by MrFenderManiac

Here is the version of the song I listened to while writing this tab:

Take notice:
The C#, B, G#m and F# are ment to be played like powerchords.


GUITAR 1 (DISTORTION)
INTRO                      Play the intro 8 times

E|----------------------------------------------|
B|----------------------------------------------|
G|----------------------------------------------|
D|----------------------------------------------|
A|--------7-----6h7--------4--------2v--0--2----|
E|--0--0-----0-------0--0-----0--0--------------|


GUITAR 2 (DISTORTION)
VERSE

STRUM THESE CHORDS WHILE PALM MUTING:

E
All because of You
                         C#
I live and breathe everyday
     A             E
I'm giving You the praise

(Listen to the song, and you will figure it out)


GUITAR 1 - Here is the tab for the lead part of the verse (begins at 1:09)

E|---------------------------------------------|
B|---------------------------------------------|
G|---------------------------------------------|
D|---------------------------------------------|
A|--4--4--7--4--6h7--2--0--0--7--0--6h7--2-----|
E|---------------------------------------------|

E|---------------------------------------------|
B|---------------------------------------------|
G|---------------------------------------------|
D|---------------------------------------------|
A|--------7-----6h7--------4--------2v---------|
E|--0--0-----0-------0--0-----0--0-------------|


GUITAR 2
PRE-CHORUS
             A     B     A
You make me sing, sing, sing,
 A     B     C#     B
Sing, sing, sing.. sing!


CHORUS
   E              B
I am because You are
   G#m               A
I live because You live
   E                B        G#m A
I love because You loved me first


BRIDGE GUITAR 1 (NO DISTORTION)

Just pluck these chords and it will sound good. Remember, you don't need to play
constantly, chill out a bit :)
You could play the A and B major like this to give it a different, more comfy sound:

   Aadd9

E|--0--
B|--0--
G|--2--
D|--2--
A|--0--
E|--0--

    B - open chord

E|--0--
B|--0--
G|--4--
D|--4--
A|--2--
E|--0--

play the C# like the B only two frets up

 E               B
I'm alive cause You're alive
 C#              Aadd9
I'm alive cause You're alive
 E               B               G#m Aadd9
I'm alive cause You're alive in me.


GUITAR 2 (DISTORTION)
PRE-CHORUS
             A     B     A
You make me sing, sing, sing,
 A     B     C#
Sing, sing, sing..
 A     B     C#     B
Sing, sing, sing.. sing!

FINAL CHORUS - MODULATION
                     C#
I am because you are!
   Bb               B
I live because You live
   F#                C#        Bb B
I love because You loved me first


I did this entire tab by ear, so I am not saying that it is flawless. I
would be really grateful if you could give me some constructive feedback :)





Comments


Popular Ungfila tabs & chords
All Because Of You Chords
Alt Til Deg Chords
Blessed Be Your Name Chords
I Will Love You Chords
Leve Av Deg Chords
All Because Of You Ukulele
Alt Til Deg Ukulele
Honor To Your Name Ukulele
I Will Love You Ukulele
Leve Av Deg Ukulele


Song lyrics



↑ Back to top | Tablatures and chords are parodies/interpretations of the original songs. You may use it for private study, scholarship, research or language learning purposes only
© 2014 AZChords.com Contact us | Privacy policy | DMCA | Add/correct tabs | Request tabs | Top 50 tabs