>
 >
All Because Of You

All Because Of You Bass Tabs

Ungfila - All Because Of You chords, tabs, tablatures, lyrics

Guitar lessons | Add/correct | Request | Top 50 tabs Artists:  A B C D E F G H I J K L M N O P Q R S T U V W X Y Z 0-9

All Because Of You Bass Tabs – Ungfila

CD, Sheet music, Poster

Do you like All Because Of You? Share with your friends now
Bass TabsChordsTabsUkulele
E|-0-0-0-0-0-0-0-0-0-0-0-0-0-0-0-0-0-0-0-0-0-0-0-0-0-0-0-0-0-0-|
A|-------------------------------------------------------------|
D|-------------------------------------------------------------|
G|-------------------------------------------------------------|

E|---------------------------------|
A|-4-4-4-4-4-4-4-4-----------------|
D|-----------------0-0-0-0-0-0-0-0-|
G|---------------------------------|

E|-0-0-0-0-0-0-0-0-0-0-0-0-0-0-0-0-|
A|---------------------------------|
D|---------------------------------|
G|---------------------------------|

E|-0-0-0-0-0-0-0-0-0-0-0-0-0-0-0-0-0-0-0-0-0-0-0-0-0-0-0-0-0-0-|
A|-------------------------------------------------------------|
D|-------------------------------------------------------------|
G|-------------------------------------------------------------|

E|---------------------------------|
A|-4-4-4-4-4-4-4-4-----------------|
D|-----------------0-0-0-0-0-0-0-0-|
G|---------------------------------|

E|-0-0-0-0-0-0-0-0-0-0-0-0-0-0-0-0-|
A|---------------------------------|
D|---------------------------------|
G|---------------------------------|





Comments


Popular Ungfila tabs & chords
All Because Of You Chords
Alt Til Deg Chords
Honor To Your Name Chords
I Will Love You Chords
Leve Av Deg Chords
All Because Of You Ukulele
Alt Til Deg Ukulele
Blessed Be Your Name Ukulele
I Will Love You Ukulele
Leve Av Deg Ukulele


Song lyrics



↑ Back to top | Tablatures and chords are parodies/interpretations of the original songs. You may use it for private study, scholarship, research or language learning purposes only
© 2014 AZChords.com Contact us | Privacy policy | DMCA | Add/correct tabs | Request tabs | Top 50 tabs