» » »

All Because Of You Bass tabs (ver.1)

Artists:  A B C D E F G H I J K L M N O P Q R S T U V W X Y Z # 

All Because Of You Bass tabs (ver.1)

Ungfila
Rating:
0/5 (0 votes)

Hard to play? Try these video lessons and learn fast.
                E|-0-0-0-0-0-0-0-0-0-0-0-0-0-0-0-0-0-0-0-0-0-0-0-0-0-0-0-0-0-0-|
A|-------------------------------------------------------------|
D|-------------------------------------------------------------|
G|-------------------------------------------------------------|

E|---------------------------------|
A|-4-4-4-4-4-4-4-4-----------------|
D|-----------------0-0-0-0-0-0-0-0-|
G|---------------------------------|

E|-0-0-0-0-0-0-0-0-0-0-0-0-0-0-0-0-|
A|---------------------------------|
D|---------------------------------|
G|---------------------------------|

E|-0-0-0-0-0-0-0-0-0-0-0-0-0-0-0-0-0-0-0-0-0-0-0-0-0-0-0-0-0-0-|
A|-------------------------------------------------------------|
D|-------------------------------------------------------------|
G|-------------------------------------------------------------|

E|---------------------------------|
A|-4-4-4-4-4-4-4-4-----------------|
D|-----------------0-0-0-0-0-0-0-0-|
G|---------------------------------|

E|-0-0-0-0-0-0-0-0-0-0-0-0-0-0-0-0-|
A|---------------------------------|
D|---------------------------------|
G|---------------------------------|
            
Hard to play? Try these video lessons and learn fast. | Correct




comments powered by Disqus
↑ Back to top | Tablatures and chords are parodies/interpretations of the original songs. You may use it for private study, scholarship, research or language learning purposes only