>
 >
The Great Dividers 1

The Great Dividers 1 Guitar Tabs

Unearth - The Great Dividers 1 chords, tabs, tablatures, lyrics

Guitar lessons | Add/correct | Request | Top 50 tabs Artists:  A B C D E F G H I J K L M N O P Q R S T U V W X Y Z 0-9

The Great Dividers 1 Guitar Tabs – Unearth

CD, Sheet music, Poster

Do you like The Great Dividers 1? Share with your friends now
Bass TabsTabsTabs v2Tabs v3

This is a fuckin primo song...its not very hard so u should be able to play it....unless u fucking suck



Riff 1(Both Guitars)
|---------|-----------------------------------------------|
|---------|-----------------------------------------------|
|---------|-----------------------------------------------|
|-0~--x\\-|----6-----------6------------------------------|
|-0~--x\\-|--5--5-6-3-5--5--5-6-3-8--8-8-7-8-5------3-8-7-|
|-0~--x\\-|-0-0---------0-0---------0-0-----8--0-3-0-0---8|
PM          . .         . .         . .        .   . .

Riff 1(Con't)
|----------------------------------------------------|
|----------------------------------------------------|
|----------------------------------------------------|
|----6-----------6-----------------------------------|
|--5--5-6-3-5--5--5-6-3-8--8-8-7-8-7-5------1----6-5-|
|-0-0---------0-0---------0-0----------0-1-4--0-0----|
PM. .         . .         . .          .      . .

Riff 1 (Cont) (Both Guitars) (Play last time of verse)
|----------------------------------------------------------------|
|----------------------------------------------------------------|
|----------------------------------------------------------------|
|-----6-5-------6-5----------------------------------------------|
|--5---8-6-5-5---8-6-8-8-8-7-8-7-6-----------6-5-----------------|
|-0-0-------0-0-------0-0---------0h6h8h10-00--------------------|
pm. .       . .       . .                  ..

Riff 2 (Gtr.1)
|------------------------------------------------|
|------------------------------------------------|
|------------------------------------------------|
|-7---7----7---7----7---7----5-5---10-10---------|
|-5---5-8--5---5-7--5---5-8--3-3---8--8----------|
|-------8--------7--------8----------------------|

Riff 2(Gtr.1) (Cont)
|------------------------------------------------|
|------------------------------------------------|
|------------------------------------------------|
|-7---7----7---7----7---7------------------------|
|-5---5-8--5---5-7--5---5-8--3-3--5-5------------|
|-------8--------7--------8--3-3--5-5------------|

Riff 2 (Gtr.2)
|------------------------------------------------|
|------------------------------------------------|
|-------------------------------1010-------------| (10's not 1's
|-7--77---7--77---7--77---------x-x--------------|  and 0's)
|-5--55-8-5--55-7-5--55-8--3-3--8-8--------------|
|-------8-------7-------8--3-3-------------------|

Riff 2 (Gtr.2) (Cont)
|------------------------------------------------|
|------------------------------------------------|
|------------------------------------------------|
|-7--77---7--77---7--77--------------------------|
|-5--55-8-5--55-7-5--55-8--3-3--5-5--------------|
|-------8-------7-------8--3-3--5-5--------------|

Riff 3 (Both Guitars)
|------------------------------------------------|
|------------------------------------------------|
|-7--------7--------7----------------------------|
|-x--------x--------x----------------------------|
|-5b-00000-5b-00000-5b-00000-8-8---8-8-----------|
|----00000----00000----00000-8-8-0-8-8-----------|
pm   .....    .....    .....

Riff 3 (Cont)
|------------------------------------------------|
|------------------------------------------------|
|-7--------7--------7----------------------------|
|-x--------x--------x--------1010--5-5-----------|
|-5b-00000-5b-00000-5b-00000-8-8---3-3-----------|
|----00000----00000----00000-----0---------------|
pm   .....    .....    .....

Riff 4 (Both Guitars)
|------------------------------------------------|
|------------------------------------------------|
|------------------------------------------------|
|---------------------------------5-8\7/6--------|
|-0-02p03p0-0005p00-0-02p03p0-00--3-6\5/6--------|
|-0-02p03p0-0005p00-0-02p03p0-00-0---------------|
pm          ...   .           .  .

Riff 4 (Cont) (Gtr.2 play higher part)
|------------------------------------------------|
|------------------------------------------------|
|------------------------------------------------|
|-------------------------------5-878583---------|
|-0-02p03p0-0005p00-0-02p03p0---5-878583---------|
|-0-02p03p0-0005p00-0-02p03p0-0------------------|
pm          ...   .           .

Riff 5 Gtr.1 (Gtr.2 plays some chords over this but i havn't tabbed them)
|----------------------------------------------------------------|
|----------------------------------------------------------------|
|----------------------------------------------------------------|
|-7--7-8p7p5h7--7-8p7p5h7--7-8p7----10-10-8h10-------------------|
|--------------------------------8-------------------------------|
|---0-0--------0-0--------0-0------0-----------------------------|
pm  . .        . .        . .      .

Riff 5 (Cont)
|----------------------------------------------------------------|
|----------------------------------------------------------------|
|----------------------------------------------------------------|
|-7--7-8p7p5h7--7-8p7p5-12p10p8--8b-7-7p5-5-5--------------------|
|----------------------------------------------------------------|
|---0-0--------0-0--------------0--0-----------------------------|
pm  . .        . .              .  .

There is a duo guitar riff here but i havn't figured it yet

Riff 7 (Gtr.1)
|--------------------------------|
|--------------------------------|
|--------------------------------|
|-0------------------------------|
|-0-let ring---------------------|
|-0------------------------------|

Riff 7 (Gtr.2)
|---10-11~-----10-11~-----10-11~-----10-11~|
|-10---------10---------10---------10------|
|------------------------------------------|
|------------------------------------------|
|------------------------------------------|
|------------------------------------------|

Riff 8 (Both Guitars)
|----------------------------------------------------|
|----------------------------------------------------|
|----------------------------------------------------|
|---------------------7--8---------------------8--10-|
|-0-00-00-0-00-00---007008-0-00-00-0-00-00---0080010-| (10's)
|-0-00-00-0-00-00---007008-0-00-00-0-00-00---0080010-|
pm. .. .. . .. ..   .. ..  . .. .. . .. ..   .. ..

Riff 8 (Cont)
|--------------------------------------------------------|
|--------------------------------------------------------|
|--------------------------------------------------------|
|---------------------7--8-------------------------------|
|-0-00-00-0-00-00---007008-0-00-00-0-00-00-0-00-00-0-0-0-|
|-0-00-00-0-00-00---007008-0-00-00-0-00-00-0-00-00-0-0-0-|
pm. .. .. . .. ..   .. ..  . .. .. . .. .. . .. .. . . .

Riff 9 (Both Guitars)
|--------------------------------------------------|
|--------------------------------------------------|
|-------7-------8-------12-------11----------------|
|-------x-------x-------x--------x---(0)-----------|
|-0-00-05-0-00-06-0-00-010-0-00-09---(0)last-time--|
|-0-00-0--0-00-0--0-00-0---0-00-0----(0)-----------|
pm . .. .  . .. .  . .. .   . .. .


Riff 1 (Both Guitars)
|----------------------------------------------------------------|
|----------------------------------------------------------------|
|----------------------------------------------------------------|
|-----6-5-------6-5----------------------------------------------|
|--5---8-6-5-5---8-6-8-8-8-7-8-7-6----------8-6-5----------------|
|-0-0-------0-0-------0-0----------0-6-0-8-0---------------------|
pm. .       . .       . .          .   .   .

Riff 1 (Cont)
|----------------------------------------------------------------|
|----------------------------------------------------------------|
|----------------------------------------------------------------|
|-----6-5-------6-5----------------------------------------------|
|--5---8-6-5-5---8-6-8-8-8-7-8-7-6-----------6-5-----------------|
|-0-0-------0-0-------0-0---------0h6h8h10-00--------------------|
pm. .       . .       . .                  ..

Riff 10 (Gtr.1) (Gtr.2, just let 0 on B-string ring)
|-------------------------------------------|
|-------------------------------------------|
|-------------------------------------------|
|-------------------------------------------|
|-0~---------------------------------8-6-5--|
|-0~-----------------------0-6-0-8-0--------|
pm                         .   .   .

Riff 11 (Gtr.1)
|------------------------------------------|
|------------------------------------------|
|------------------------------------------|
|-0-------0-------0------------------------|
|-000000000000000000000000------------6-5--|
|-000000000000000000000000-0h6h8h10-00-----|
pm ....... ....... .......          ..

Riff 11 (Cont)
|--------------------------------------------|
|--------------------------------------------|
|--------------------------------------------|
|-0-------0-------0-------0------------------|
|-0000000000000000000000000-----------8-6-5--|
|-0000000000000000000000000-0-6-0-8-0--------|
pm ....... ....... .......  .   .   .

Riff 11 (Cont)
|------------------------------------------|
|------------------------------------------|
|------------------------------------------|
|-0-------0-------0------------------------|
|-000000000000000000000000------------6-5--|
|-000000000000000000000000-0h6h8h10-00-----|
pm ....... ....... .......          ..

Riff 11 (Both Guitars)
|--------------------------------------------|
|--------------------------------------------|
|--------------------------------------------|
|-0-------0-------0-------0------------------|
|-0000000000000000000000000-----------8-6-5--|
|-0000000000000000000000000-0-6-0-8-0--------|
pm ....... ....... .......  .   .   .

Riff 11 (Cont)
|------------------------------------------|
|------------------------------------------|
|------------------------------------------|
|-0-------0-------0------------------------|
|-000000000000000000000000------------6-5--|
|-000000000000000000000000-0h6h8h10-00-----|
pm ....... ....... .......          ..





Comments


Popular Unearth tabs & chords
My Will Be Done Bass Tabs
One Step Away 2 Bass Tabs
The Charm Bass Tabs
The Great Dividers Bass Tabs
Sanctity Of Brothers Drum Tabs
Bloodlust Of The Human Condition 1 Tabs
Crow Killer Tabs
Grave Of Opportunity Intro Tabs
Monition Tabs
Stings Of Conscience Tabs


Song lyrics



↑ Back to top | Tablatures and chords are parodies/interpretations of the original songs. You may use it for private study, scholarship, research or language learning purposes only
© 2014 AZChords.com Contact us | Privacy policy | DMCA | Add/correct tabs | Request tabs | Top 50 tabs