» » »

The Charm Tabs (ver.1)

Artists:  A B C D E F G H I J K L M N O P Q R S T U V W X Y Z # 

The Charm Tabs (ver.1)

Unearth
Rating:
0/5 (0 votes)

Hard to play? Try these video lessons and learn fast.
                Band- Unearth
Song- The Charm

Part 1
0:00 - 0:20
gtr.1           1,2   2,4
||------------|------|-------||
||------------|------|-------||
||------------|------|-------||
||--5---3-5--5|------|-------||
||--3-3-1-3--3|333333|-------||
||------------|------|-566688||
      .        ......
|------------------------------------------------------------|
|------------------------------------------------------------|
|-/55555-/77777-/88888----------/55555-/77777-/33333---------|
|----------------------666-888-----------------------666-888-|
|-/33333-/55555-/66666-666-888--/33333-/55555-/11111-666-888-|
|----------------------666-888-----------------------666-888-|

gtr.2
                                              1,3             2,4
|---------------||---------------------------|----------------|---------------||
|---------------||---------------------------|----------------|---------------||
|8p7p5h7p5/4h5p4||-5--3-5-8-7-5--7p5/4--5-3-5|-5p3-5p3-8-7-5/3|8p7p5h7p5/4h5p4||
|---------------||---------------------------|----------------|---------------||
|---------------||---------------------------|----------------|---------------||
|---------------||---------------------------|----------------|---------------||

Part 2
0:20 - 0:40
Gtr. 2
||----------------|-------------------||
||----------------|-------------------||
||-5-3-5-7-8-7-5--|-10-8-7----8-7-----||
||---------------8|--------10-----10-8||
||----------------|-------------------||
||----------------|-------------------||

Part 3
 0:40 - 0:59
||---------------------|---------------||
||---------------------|---------------||
||---------------------|---------------||
||----------------3p2p0|-----------10-9||
||----5-3-5-1-5-3------|-----5-3-5-8--7||
||000------------------|-000-----------||
  ...                    ...

1:00 - 1:27
Rhythm using palm muted open 6 string
Just listen to song

Part 4
1:28 - 1:48
||-------------------------||-------------------------||
||-------------------------||-------------------------||
||-------------------------||-------------------------||
||0------------------------||-0-----------------------||
||0--5p3-3-33-3/1-1p0-1-3--||-0--5p3-7-77-7/8-8p7-----||
||0------------------------||-0-------------------3-1-||
                                                  . .
Part 5
1:48 - 2:07
|-----||-----------------------------------------||-----------------|
|-----||-----------------------------------------||-----------------|
|-----||-----------------------------------------||-----------------|
|12-//||-----------------------------------------||1p0--------------|
|12-//||---------------5----------------5-3-5-7-5||1p0--------------|
|12-//||0000-0000-0000---0000-0000-0000----------||1p0-000-0-000-0-0|
        .... .... ....   .... .... ....            . . ... . ... . .

2:08 - 2:26
repeat Part 2

Part 6
2:27 - 2:31
I think it's just an echo effect after each 4 note run, not sure
|---------------------------------------|---------|
|---------------------------------------|---------|
|---------------------------------------|---------|
|-121097------10975------9754------7542-|-//////--|
|---------------------------------------|-//////--|
|---------------------------------------|---------|
                                     pick slide
Part 7
 2:32 - 2:54
||----------------------------|-------------------------------||
||----------------------------|-------------------------------||
||----------------------------|-------------------------------||
||1p0-------------1p0-1-3-5-7-|-1p0---------------------------||
||1p0-------------1p0-1-1-3-5-|-1p0---------------------------||
||1p0-000-000-000-1p0-1-------|-1p0-000-000-000-5-8-5--7-10-7-||

2:54 - end
||-------------------------------|--------------------------------||
||-------------------------------|--------------------------------||
||-------------------------------|--------------------------------||
||-------------------------------|--------------------------------||
||-------------------------------|-5-8-5--7-10-7--8-12-8--10-14-10||
||5-8-5--7-10-7--8-12-8--10-14-10|--------------------------------||
            
Hard to play? Try these video lessons and learn fast. | Correct




comments powered by Disqus
↑ Back to top | Tablatures and chords are parodies/interpretations of the original songs. You may use it for private study, scholarship, research or language learning purposes only