>
 >
My Heart Bleeds No Longer

My Heart Bleeds No Longer Bass Tabs

Unearth - My Heart Bleeds No Longer chords, tabs, tablatures, lyrics

Guitar lessons | Add/correct | Request | Top 50 tabs Artists:  A B C D E F G H I J K L M N O P Q R S T U V W X Y Z 0-9

My Heart Bleeds No Longer Bass Tabs – Unearth

CD, Sheet music, Poster

Do you like My Heart Bleeds No Longer? Share with your friends now
Bass TabsBass Tabs v2Bass Tabs v3Tabs
Band - Unearth
Song - My Heart Bleeds No Longer
BASS PLAYER



     W                   W                 
G||-------------------|-------------------|
D||-------------------|-------------------|
A||-------------------|-------------------|
E||-------------------|-------------------|
B||-------------------|-------------------|


     E.  E.  E  E.  E.  E   
G||------------------------|
D||------------------------|
A||------------------------|
E||-------------1---0------|
B||--3---2---3----------2--|


  S S S S S S E  E  S S S S S S  
--------------------------------|
--------------------------------|
--------------------------------|
--------------------------------|
--0-0---0-0---------0---0-0---0-|


  S S S S S S E  E  S S S S S S  
--------------------------------|
--------------------------------|
--------------------------------|
--------------------------------|
--0-0---0-0---------0---0-0---0-|


  S S S S S S E  E  S S S S S S  
--------------------------------|
--------------------------------|
--------------------------------|
--------------------------------|
--0-0---0-0---------0---0-0---0-|


  E.  E.  E  E.  E.  E   
------------------------|
------------------------|
------------------------|
-------------1---0------|
--3---2---3----------2--|


  S S S S S S E  E  S S S S S S  
--------------------------------|
--------------------------------|
--------------------------------|
--------------------------------|
--0-0---0-0---------0---0-0---0-|


  S S S S S S E  E  S S S S S S  
--------------------------------|
--------------------------------|
--------------------------------|
--------------------------------|
--0-0---0-0---------0---0-0---0-|


  S S S S S S E  E  S S S S S S  
--------------------------------|
--------------------------------|
--------------------------------|
--------------------------------|
--0-0---0-0---------0---0-0---0-|


  E.  E.  E  E.  E.  E   
------------------------|
------------------------|
------------------------|
-------------1---0------|
--3---2---3----------2--|


  S S S S S S E  E  S S S S S S  
--------------------------------|
--------------------------------|
--------------------------------|
--------------------------------|
--0-0---0-0---------0---0-0---0-|


  S S S S S S E  E  S S S S S S  
--------------------------------|
--------------------------------|
--------------------------------|
--------------------------------|
--0-0---0-0---------0---0-0---0-|


  S S S S S S E  E  S S S S S S  
--------------------------------|
--------------------------------|
--------------------------------|
--------------------------------|
--0-0---0-0---------0---0-0---0-|


  E.  E.  E  E.  E.  E   
------------------------|
------------------------|
------------------------|
-------------1---0------|
--3---2---3----------2--|


  S S S S S S E  E  S S S S S S  
--------------------------------|
--------------------------------|
--------------------------------|
--------------------------------|
--0-0---0-0---------0---0-0---0-|


  S S S S S S E  E  S S S S S S  
--------------------------------|
--------------------------------|
--------------------------------|
--------------------------------|
--0-0---0-0---------0---0-0---0-|


  S S S S S S E  E  S S S S S S  
--------------------------------|
--------------------------------|
--------------------------------|
--------------------------------|
--0-0---0-0---------0---0-0---0-|


  E.  E.  E  E.  E.  E   
------------------------|
------------------------|
------------------------|
-------------1---0------|
--3---2---3----------2--|


  S S S S S S S S S S S S S S S S  
----------------------------------|
--0-0-0-0-0-0-0-0-3-3-2-2-3-3-3-3-|
----------------------------------|
----------------------------------|
----------------------------------|


  S S S S S S S S S S S S S S S S  
----------------------------------|
--0-0-0-0-0-0-0-0-3-3-2-2-3-3-3-3-|
----------------------------------|
----------------------------------|
----------------------------------|


  S S S S S S S S S S S S S S S S  
----------------------------------|
------------------3-3-2-2---------|
--------------------------3-3-3-3-|
--1-1-1-1-1-1-1-1-----------------|
----------------------------------|


  S S S S S S S S S S S S S S S S  
----------------------------------|
------------------3-3-2-2-----2-2-|
--0-0-0-0-0-0-0-0---------3-3-----|
----------------------------------|
----------------------------------|


  S S S S S S S S S S S S S S S S  
----------------------------------|
--0-0-0-0-0-0-0-0-3-3-2-2-3-3-3-3-|
----------------------------------|
----------------------------------|
----------------------------------|


  S S S S S S S S S S S S S S S S  
----------------------------------|
--0-0-0-0-0-0-0-0-3-3-2-2-3-3-3-3-|
----------------------------------|
----------------------------------|
----------------------------------|


  S S S S S S S S S S S S S S S S  
----------------------------------|
------------------3-3-2-2---------|
--------------------------3-3-3-3-|
--1-1-1-1-1-1-1-1-----------------|
----------------------------------|


  S S S S S S S S S S S S S S S S  
----------------------------------|
------------------3-3-2-2-----2-2-|
--0-0-0-0-0-0-0-0---------3-3-----|
----------------------------------|
----------------------------------|


  H        E  E  Q     
----------------------|
--0--------3--2--3----|
----------------------|
----------------------|
----------------------|


  H        E  E  Q       H        H         
----------------------|--0-----------------|
--0--------3--2--3----|-----------3--------|
----------------------|--------------------|
----------------------|--------------------|
----------------------|--------------------|


  Q    Q    E  E  E  E   
------------------------|
--2----3----2--3--2-----|
---------------------3--|
------------------------|
------------------------|


  H        E  E  Q     
----------------------|
--0--------3--2--3----|
----------------------|
----------------------|
----------------------|


  H        E  E  Q       H        H         
----------------------|--0-----------------|
--0--------3--2--3----|-----------3--------|
----------------------|--------------------|
----------------------|--------------------|
----------------------|--------------------|


  Q    Q    E  E  E  E   
------------------------|
--2----3----2--3--2-----|
---------------------3--|
------------------------|
------------------------|


  H        E  E  Q     
----------------------|
--0--------3--2--3----|
----------------------|
----------------------|
----------------------|


  H        E  E  Q       H        H         
----------------------|--0-----------------|
--0--------3--2--3----|-----------3--------|
----------------------|--------------------|
----------------------|--------------------|
----------------------|--------------------|


  Q    Q    E  E  E  E   
------------------------|
--2----3----2--3--2-----|
---------------------3--|
------------------------|
------------------------|


  H        E  E  Q     
----------------------|
--0--------3--2--3----|
----------------------|
----------------------|
----------------------|


  H        E  E  Q       H        H         
----------------------|--0-----------------|
--0--------3--2--3----|-----------3--------|
----------------------|--------------------|
----------------------|--------------------|
----------------------|--------------------|


  Q    Q    E  E  E  E   
------------------------|
--2----3----2--3--2-----|
---------------------3--|
------------------------|
------------------------|


  S S S S S S S S S S S S S S S S  
----------------------------------|
----------------------------------|
----------------------------------|
----------------------------------|
--0-0---0-0---0-0---0-0---0-0-0-0-|


  S S S S S S S S S S S S S S S S  
----------------------------------|
----------------------------------|
----------------------------------|
----------------------------------|
--0-0---0-0---0-0---0-0---0-0-0-0-|


  S S S S S S S S S S S S S S S S  
----------------------------------|
----------------------------------|
----------------------------------|
----------------------------------|
--0-0---0-0---0-0---0-0---0-0-0-0-|


  S S S S S S S S S S S S E  E   
--------------------------------|
--------------------------------|
--------------------------------|
--------------------------------|
--0-0---0-0---0-0---------------|


  S S S S S S S S S S S S S S S S  
----------------------------------|
----------------------------------|
----------------------------------|
----------------------------------|
--0-0---0-0-----------0---0-0---0-|


  S S S S S S S S S S S S S S S S  
----------------------------------|
----------------------------------|
----------------------------------|
----------------------------------|
--0-0---0-0-----------0---0-0---0-|


  S S S S S S S S S S S S S S S S  
----------------------------------|
----------------------------------|
----------------------------------|
----------------------------------|
--0-0---0-0-----------0---0-0---0-|


  S S S S S S S S S S S S S S S S  
----------------------------------|
----------------------------------|
----------------------------------|
----------------------------------|
--0-0---0-0---0-0-0-0---0-0---0-0-|


  S S S S S S S S S S S S S S S S  
----------------------------------|
----------------------------------|
----------------------------------|
----------------------------------|
--0-0---0-0-----------0---0-0---0-|


  S S S S S S S S S S S S S S S S  
----------------------------------|
----------------------------------|
----------------------------------|
----------------------------------|
--0-0---0-0-----------0---0-0---0-|


  S S S S S S S S S S S S S S S S  
----------------------------------|
----------------------------------|
----------------------------------|
----------------------------------|
--0-0---0-0-----------0---0-0---0-|


  S S S S S S S S S S S S S S S S  
----------------------------------|
----------------------------------|
----------------------------------|
----------------------------------|
--0-0---0-0---0-0-0-0---0-0---0-0-|


  S S S S S S S S S S S S S S S S  
----------------------------------|
----------------------------------|
----------------------------------|
----------------------------------|
--0-0---0-0-----------0---0-0---0-|


  S S S S S S S S S S S S S S S S  
----------------------------------|
----------------------------------|
----------------------------------|
----------------------------------|
--0-0---0-0-----------0---0-0---0-|


  S S S S S S S S S S S S S S S S  
----------------------------------|
----------------------------------|
----------------------------------|
----------------------------------|
--0-0---0-0-----------0---0-0---0-|


  S S S S S S S S S S S S S S S S  
----------------------------------|
----------------------------------|
----------------------------------|
----------------------------------|
--0-0---0-0---0-0-0-0---0-0---0-0-|


  S S S S S S S S S S S S S S S S  
----------------------------------|
----------------------------------|
----------------------------------|
----------------------------------|
--0-0---0-0-----------0---0-0---0-|


  S S S S S S S S S S S S S S S S  
----------------------------------|
----------------------------------|
----------------------------------|
----------------------------------|
--0-0---0-0-----------0---0-0---0-|


  S S S S S S S S S S S S S S S S  
----------------------------------|
----------------------------------|
----------------------------------|
----------------------------------|
--0-0---0-0-----------0---0-0---0-|


  S S S S S S S S S S S S S S S S  
----------------------------------|
----------------------------------|
----------------------------------|
----------------------------------|
--0-0---0-0---0-0-0-0---0-0---0-0-|


  H        E  E  Q     
----------------------|
--0--------3--2--3----|
----------------------|
----------------------|
----------------------|


  H        E  E  Q       H        H         
----------------------|--0-----------------|
--0--------3--2--3----|-----------3--------|
----------------------|--------------------|
----------------------|--------------------|
----------------------|--------------------|


  Q    Q    E  E  E  E   
------------------------|
--2----3----2--3--2-----|
---------------------3--|
------------------------|
------------------------|


  H        E  E  Q     
----------------------|
--0--------3--2--3----|
----------------------|
----------------------|
----------------------|


  H        E  E  Q       H        H         
----------------------|--0-----------------|
--0--------3--2--3----|-----------3--------|
----------------------|--------------------|
----------------------|--------------------|
----------------------|--------------------|


  Q    Q    E  E  E  E   
------------------------|
--2----3----2--3--2-----|
---------------------3--|
------------------------|
------------------------|


  H        E  E  Q     
----------------------|
--0--------3--2--3----|
----------------------|
----------------------|
----------------------|


  H        E  E  Q       H        H         
----------------------|--0-----------------|
--0--------3--2--3----|-----------3--------|
----------------------|--------------------|
----------------------|--------------------|
----------------------|--------------------|


  Q    Q    E  E  E  E   
------------------------|
--2----3----2--3--2-----|
---------------------3--|
------------------------|
------------------------|


  H        E  E  Q     
----------------------|
--0--------3--2--3----|
----------------------|
----------------------|
----------------------|


  H        E  E  Q       H        H         
----------------------|--0-----------------|
--0--------3--2--3----|-----------3--------|
----------------------|--------------------|
----------------------|--------------------|
----------------------|--------------------|


  Q    Q    E  E  E  E   
------------------------|
--2----3----2--3--2-----|
---------------------3--|
------------------------|
------------------------|


  E   Q    Q    Q    E   
------------------------|
------------------------|
------------------------|
------------------------|
--3\--------------------|


  E  E  E  E  E  E  E  E   
--------------------------|
--------------------------|
--------------------------|
--------------------------|
--3--3--3--3--3--3--3--3--|


  E   Q    Q    Q    E   
------------------------|
------------------------|
------------------------|
------------------------|
--3\--------------------|


  S S S S S S S S S S S S S S S S  
----------------------------------|
----------------------------------|
----------------------------------|
----------------------------------|
--3-3-3-3-3-3-3-3-3-3-3-3-3-3-3-3-|


  E  E  E  E  E  E  E  E   
--------------------------|
--------------------------|
--------------------------|
--------------------------|
--3--3--3--3--3--3--3--3--|


  E  E  E  E  E  E  E  E   
--------------------------|
--------------------------|
--------------------------|
--------------------------|
--3--3--3--3--3--3--3--3--|


  E  E  E  E  E  E  E  E   
--------------------------|
--------------------------|
--------------------------|
--------------------------|
--3--3--3--3--3--3--3--3--|


  E  E  E  E  E  E  E  E   
--------------------------|
--------------------------|
--5-----------5-----------|
--------------------------|
--------------------------|


  W                   H        H         
-------------------|--------------------|
-------------------|--------------------|
--5----------------|--L--------3--------|
-------------------|--------------------|
-------------------|--------------------|


  W                   H        H         
-------------------|--------------------|
-------------------|--------------------|
--5----------------|--1--------3--------|
-------------------|--------------------|
-------------------|--------------------|


  W                   H        H         
-------------------|--------------------|
-------------------|--------------------|
--5----------------|--L--------3--------|
-------------------|--------------------|
-------------------|--------------------|


  W                   H        H         
-------------------|--------------------|
-------------------|--------------------|
--5----------------|--1--------3--------|
-------------------|--------------------|
-------------------|--------------------|


  W                   H        H         
-------------------|--------------------|
-------------------|--------------------|
--5----------------|--L--------3--------|
-------------------|--------------------|
-------------------|--------------------|


  W                   H        H         
-------------------|--------------------|
-------------------|--------------------|
--5----------------|--1--------3--------|
-------------------|--------------------|
-------------------|--------------------|


  W                   H        H         
-------------------|--------------------|
-------------------|--------------------|
--5----------------|--L--------3--------|
-------------------|--------------------|
-------------------|--------------------|


  W                   H        H         
-------------------|--------------------|
-------------------|--------------------|
--5----------------|--1--------3--------|
-------------------|--------------------|
-------------------|--------------------|


  W                 
-------------------|
-------------------|
--5----------------|
-------------------|
-------------------|


           |----3----|     
  H        Q    Q    Q     
--------------------------|
--------------------------|
--L-----------------------|
--------------------------|
-----------3----1----3----|


  Q    E  Q    E  Q     
-----------------------|
-----------------------|
-----------------------|
----------6----L-------|
--4----L----------6----|


  E  E  E  E  E   E  E  E   
---------------------------|
---------------------------|
--------------8--10--8--6--|
---------------------------|
--L--L--L--L---------------|


  W                 
-------------------|
-------------------|
-------------------|
-------------------|
--3----------------|


           |----3----|     
  H        Q    Q    Q     
--------------------------|
--------------------------|
--------------------------|
--------------------------|
--L--------3----1----3----|


  H        Q    Q     
---------------------|
---------------------|
---------------------|
---------------------|
--4--------L----6----|


  H        E   E  E  E     W                 
------------------------|-------------------|
------------------------|-------------------|
-----------8--10--8--6--|-------------------|
------------------------|-------------------|
--L---------------------|--3----------------|


           |----3----|     
  H        Q    Q    Q     
--------------------------|
--------------------------|
--------------------------|
--------------------------|
--L--------3----1----3----|


  Q    E  Q    E  Q     
-----------------------|
-----------------------|
-----------------------|
----------6----L-------|
--4----L----------6----|


  E  E  E  E  E   E  E  E   
---------------------------|
---------------------------|
--------------8--10--8--6--|
---------------------------|
--L--L--L--L---------------|


  W                 
-------------------|
-------------------|
-------------------|
-------------------|
--3----------------|


           |----3----|     
  H        Q    Q    Q     
--------------------------|
--------------------------|
--------------------------|
--------------------------|
--L--------3----1----3----|


  H        Q    Q     
---------------------|
---------------------|
---------------------|
---------------------|
--4--------L----6----|


  H        E   E  E  E   
------------------------|
------------------------|
-----------8--10--8--6--|
------------------------|
--L---------------------|


  Q    Q    Q    Q      
----------------------||
----------------------||
----------------------||
----------------------||
--3-------------------||




Duration Legend
---------------
W - whole
H - half
Q - quarter
E - 8th
S - 16th
T - 32nd
X - 64th
. - note dotted
|-n-|  - n-tuplets


Tablature Legend
----------------
L - tied note
x - dead note
g - grace note
(n) - ghost note
> - accentuded note
NH - natural harmonic
AH - artificial harmonic
TH - tapped harmonic
SH - semi harmonic
PH - pitch harmonic
h - hammer on
p - pull off
b - bend
br - bendRelease
pb - preBend
pbr - preBendRelease
brb - bendReleaseBend
\n/ - tremolo bar dip
\n - tremolo bar dive
-/n - tremolo bar Release up
/n\ - tremolo bar inverted dip
/n - tremolo bar return
-\n - tremolo bar Release down
S - shift slide
s - legato slide
/ -  slide into from below or out of upwards
\ -  slide into from above or out of downwards
~ - vibrato
W - wide vibrato
tr - trill
TP - tremolo picking
T - tapping
S - slap
P - pop
< - fade in
^ - brush up
v - brush down





Comments


Popular Unearth tabs & chords
My Heart Bleeds No Longer 3 Bass Tabs
One Step Away Bass Tabs
Big Bear And The Hour Of Chaos Tabs
Bloodlust Of The Human Condition Tabs
Letting Go Tabs
March Of The Mutes Tabs
My Will Be Done Intro Tabs
Sanctity Of Brothers 1 Tabs
So It Goes Tabs
Zombie Autopilot 3 Tabs


Song lyrics



↑ Back to top | Tablatures and chords are parodies/interpretations of the original songs. You may use it for private study, scholarship, research or language learning purposes only
© 2014 AZChords.com Contact us | Privacy policy | DMCA | Add/correct tabs | Request tabs | Top 50 tabs