>
 >
Monition

Monition Guitar Tabs

Unearth - Monition chords, tabs, tablatures, lyrics

Guitar lessons | Add/correct | Request | Top 50 tabs Artists:  A B C D E F G H I J K L M N O P Q R S T U V W X Y Z 0-9

Monition Guitar Tabs – Unearth

CD, Sheet music, Poster

Do you like Monition? Share with your friends now
Tabs
Standard Tuning

|------------------------------------------------------|---|
|------------------------------------------------------|---|
|------------------------------------------------------|---|  (Riff 1)
|-0---------------------0---------------------15-14-12-|-0-|
|-0-7-5-7-5-7-8-8888888-0-7-5-7-5-7-8-8888888-13-12-10-|-0-|
|-0-------------8888888-0-------------8888888----------|-0-|

(riff 2)
|-----------------------------------------------------------------|-----|
|-----------------------------------------------------------------|-----|
|-----------------------------------------------------------------|-----|
|----------------------7-8-10-8-7---------------------------------|3-2-0|
|----------------5-7-8----------------------------10-7-7-8-5-5-7-8|3-2-0|
|000-000-000-000------------------000-000-000-000-----------------|3-2-0|

|----------------------|-------|
|----------------------|-------|
|----------------------|-------|  (Riff 3)
|----------------------|-3-2-0-|
|----------------8-7-8-|-3-2-0-|
|-0000-0000-000--------|-3-2-0-|

Repeat Riff 2 

|-------------------------|
|-------------------------|
|-----7----10-----5-----8-|  (Riff 4)
|-------------------------|
|-----5-----8-----3-----6-|
|-000---000---000---000---|

|-----------------------------|-?-|---|
|-----------------------------|-?-|---|
|-----------------------------|-?-|---|  (Riff 5)
|-7-----3-----5---------------|-?-|-0-|
|-5-----1-----3--8--7-8--7-87-|-?-|-0-|
|-----------------------------|-?-|-0-|

Repeat Riff 3

|-------------------------------------5-5h6h9p6p5-|
|-------------------------------------------------|
|-------------------------------------------------|  (Riff 6)
|----8T-7T-------4T-3T------8T-7T-5T--------------|
|-5T-------6T-3T------4T-5T-----------------------|
|-------------------------------------------------|

|---------------------|---|----------------|
|---------------------|---|----------------|
|-5-----6-----0-----1-|---|----------------|  (Riff 7)
|---------------------|-0-|-0-0-0-0-0-00-0-|
|---------------------|-0-|-0-0-0-0-0-00-0-|
|---------------------|-0-|-0-0-0-0-0-00-0-|

|---------------------------------------------------------------|
|---------------------------------------------------------------|
|---------------------------------------------------------7-8-7-|
|-0---0-0-0-3-0-6-0-1-0-4-0-8-0-7-------------------------7-8-7-|
|-0---0-0-0-3-0-6-0-1-0-4-0-8-0-7-9999888844447777666622225-6-5-|
|-0---0-0-0-3-0-6-0-1-0-4-0-8-0-7-------------------------------|

|-----------------------------------------------------------------------|
|-----------------------------------------------------------------------|
|------------------------------------------7-7-7---------8-8-8--11-11-11|
|0-0-000-0-3-0-6-0-1-0-4-0-8-0-7-0--0--0-0-------0-0-0-0----------------|
|0-0-000-0-3-0-6-0-1-0-4-0-8-0-7-0--0--0-0-5-5-5-0-0-0-0-6-6-6---9--9--9|
|0-0-000-0-3-0-6-0-1-0-4-0-8-0-7-0--0--0-0-------0-0-0-0----------------|





Comments


Popular Unearth tabs & chords
Shattered By The Sun Bass Tabs
This Lying World Bass Tabs
Zombie Autopilot Bass Tabs
Big Bear And The Hour Of Chaos 2 Tabs
Cutman Tabs
Sanctity Of Brothers Tabs
The Great Dividers Tabs
This Glorious Nightmare 1 Tabs
This Lying World Tabs
Unstoppable Tabs


Song lyrics



↑ Back to top | Tablatures and chords are parodies/interpretations of the original songs. You may use it for private study, scholarship, research or language learning purposes only
© 2014 AZChords.com Contact us | Privacy policy | DMCA | Add/correct tabs | Request tabs | Top 50 tabs