>
 >
Lie To Purify

Lie To Purify Guitar Tabs

Unearth - Lie To Purify chords, tabs, tablatures, lyrics

Guitar lessons | Add/correct | Request | Top 50 tabs Artists:  A B C D E F G H I J K L M N O P Q R S T U V W X Y Z 0-9

Lie To Purify Guitar Tabs – Unearth

CD, Sheet music, Poster

Do you like Lie To Purify? Share with your friends now
Tabs
Band- Unearth
Song- Lie To Purify

KEY:
h - hammer on | ~ - vibrato
p - pull off  | b - bend
/\ - Slide    |


*Riff 1

Guitar 1
E|-------------------------------------------------------------------------|
B|-------------------------------------------------------------------------|
G|-------------------------------------------------------------------------|
D|--------------------------------------------------------------------6h7--|
A|-----------5-------------------------------5---------------------7h8-----|
E|--5h7-7-5h7-7p5-5h7--888-7-888-7--5h7-7-5h7-7p5-5h7--888-7-8-7-8---------|
B|-0-----0-----------6-666-5-666-5-0-----0-----------6-666-5-6-5-6---------|

E|----------------------------------------------------------------|
B|----------------------------------------------------------------|
G|----------------------------------------------------------------|
D|----------------------------------------------------------------|
A|-----------5--------------------5h7p5---------------------------|
E|--5h7-7-5h7-7p5-5h7------5-7-5-7-----7-5-----5--8-7-5-----------|
B|-0-----0-----------00-5-7---------------0-5h7-7-6-5-3-----------|

Guitar 2
E|-------------------------------------------------------------------------|
B|-------------------------------------------------------------------------|
G|-----------7-------------------------------7-----------------------------|
D|--7h9-9-5h7-----------------------7h9-9-7h9-------------------------6h7--|
A|-------------------------------------------5---------------------7h8-----|
E|--5h7-7-5h7-7p5-5h7--888-7-888-7--5h7-7-5h7-7p5-5h7--888-7-8-7-8---------|
B|-0-----0-----------6-666-5-666-5-0-----0-----------6-666-5-6-5-6---------|

E|----------------------------------------------------------------|
B|----------------------------------------------------------------|
G|-----------7--------------------7h9p7---------------------------|
D|----9-9-----------9------7-9-7-9-----9-5-----7------------------|
A|-----------5----------7-9-----------------7h9-9-----------------|
E|--5h7-7-----------------------------------------8-7-5-----------|
B|-0-----0-----------00-------------------0-------6-5-3-----------|

*Riff 2

E|-------------------------------------------------------------------------|
B|-------------------------------------------------------------------------|
G|-------------------------------------------------------------------------|
D|-------------------------------------------------------------9-7-5-------|
A|------5----------7-7-------5--------5-----------5---------5-5-----9-7-5--|
E|-7--9--9-5-7----9-9---7---9-9-5--7-9-9-7-5-7---9-9-5-7---9-9-------------|
B|--00--------00---------00-------7-----------00--------00-----------------|

*Riff 3

Guitar 1
E|----------------------------------------------------------------|
B|----------------------------------------------------------------|
G|----------------------------------------------------------------|
D|----------------------------------------------------------------|
A|----9999999-777777-555555-7777777-------------------------------|
E|----7777777-555555-333333-5555555-------------------------------|
B|----------------------------------------------------------------|


Guitar 2
E|----------------------------------------------------------------|
B|----------------------------------------------------------------|
G|----------------------------------------------------------------|
D|-5--------------------------------------------------------------|
A|--9-7-5----7-5----------------5h7h9-5---------------------------|
E|-------9-5----9-7-5-5-7-8-7-55----------------------------------|
B|-------------------8--------------------------------------------|

*Riff 4

E|----------------------------------------------------------------|
B|----------------------------------------------------------------|
G|------------------------------------------6-6-7~-6--------------|
D|--7-5-7-5------------5---------7-5-7-9-7-9-9-------9h11p9-9-7-5-|
A|-5-9-----9-7--5-7-5~--9-7-5-7-5-9----------------------------9--|
E|-------------5-----------9--------------------------------------|
B|----------------------------------------------------------------|

*Riff 5

E|-------------------------------------------------------------------------|
B|-------------------------------------------------------------------------|
G|-------------------------------------------------------------------------|
D|-------------------------------------------------------------9-7-5-------|
A|------5----------7-7-------5--------5-----------5---------5-5-----9-7-5--|
E|-7--9--9-5-7----9-9---7---9-9-5--7-9-9-7-5-7---9-9-5-7---9-9-------------|
B|--00--------00---------00-------7-----------00--------00-----------------|


*Riff 6
E|----------------------------------------------------------------|
B|----------------------------------------------------------------|
G|----------------------------------------------------------------|
D|----------------------------------------------------------------|
A|----------------------------------------------------------------|
E|---------------------9-10-9---------------------9-10-9----------|
B|-000-00000-000-00000-7-8--7-000-00000-000-00000-7-8--7----------|
                                                                (end part)
E|------------------------------------------------------------|-----|
B|------------------------------------------------------------|-----|
G|------------------------------------------------------------|-----|
D|------------------------------------------------------------|-----|
A|------------------------------------------------------------|-----|
E|------------------------------------------------------------|2--3-|
B|-000-00000-000-00000-7h0-7h8 7-000-00000-000-00000-7h8--7h8-|0--1-|


*Riff 7

Guitar 1
E|----------------------------------------|
B|----------------------------------------|
G|----------------------------------------|
D|----------------------------------------|
A|-7-9-10-5-10-7--------------------------|
E|-5-7-8--3-8--5--------------------------|
B|----------------------------------------|

Guitar 2
E|--------------------------------------------------------------------|
B|----------------------------8-6-5-----------------------------------|
G|------------9-7-5----------------5--------9-7-5------7-10-9-7-------|
D|-x-7-9-10-7-------9-5-7-9-5-------x-5-7-9------7-5-9----------10-9--|
A|--------------------------------------------------------------------|
E|--------------------------------------------------------------------|
B|--------------------------------------------------------------------|

*Riff 8

Guitar 1
E|-------------------------------------------------------------------------|
B|-------------------------------------------------------------------------|
G|-------------------------------------------------------------------------|
D|--------------------------------------------------------------------6h7--|
A|-----------5-------------------------------5---------------------7h8-----|
E|--5h7-7-5h7-7p5-5h7--888-7-888-7--5h7-7-5h7-7p5-5h7--888-7-8-7-8---------|
B|-0-----0-----------6-666-5-666-5-0-----0-----------6-666-5-6-5-6---------|

E|----------------------------------------------------------------|
B|----------------------------------------------------------------|
G|----------------------------------------------------------------|
D|----------------------------------------------------------------|
A|-----------5--------------------5h7p5---------------------------|
E|--5h7-7-5h7-7p5-5h7------5-7-5-7-----7-5-----5--8-7-5-----------|
B|-0-----0-----------00-5-7---------------0-5h7-7-6-5-3-----------|

Guitar 2
E|-------------------------------------------------------------------------|
B|-------------------------------------------------------------------------|
G|-----------7-------------------------------7-----------------------------|
D|--7h9-9-5h7-----------------------7h9-9-7h9-------------------------6h7--|
A|-------------------------------------------5---------------------7h8-----|
E|--5h7-7-5h7-7p5-5h7--888-7-888-7--5h7-7-5h7-7p5-5h7--888-7-8-7-8---------|
B|-0-----0-----------6-666-5-666-5-0-----0-----------6-666-5-6-5-6---------|

E|----------------------------------------------------------------|
B|----------------------------------------------------------------|
G|-----------7--------------------7h9p7---------------------------|
D|----9-9-----------9------7-9-7-9-----9-5-----7------------------|
A|-----------5----------7-9-----------------7h9-9-----------------|
E|--5h7-7-----------------------------------------8-7-5-----------|
B|-0-----0-----------00-------------------0-------6-5-3-----------|





Comments


Popular Unearth tabs & chords
Bloodlust Of The Human Condition Bass Tabs
My Heart Bleeds No Longer Bass Tabs
One Step Away 2 Bass Tabs
Black Hearts Now Reign 1 Tabs
Chosen 1 Tabs
Endless Tabs
Failure Tabs
Sanctity Of Brothers Tabs
Stings Of Conscience Tabs
The Charm Tabs


Song lyrics



↑ Back to top | Tablatures and chords are parodies/interpretations of the original songs. You may use it for private study, scholarship, research or language learning purposes only
© 2014 AZChords.com Contact us | Privacy policy | DMCA | Add/correct tabs | Request tabs | Top 50 tabs