» » »

Unearth, Letting Go Tabs (ver.1)

Artists:  A B C D E F G H I J K L M N O P Q R S T U V W X Y Z # 

Letting Go Tabs (ver.1)

Unearth Tabs
 Rating:
4.2/5 (5 votes)
Letting Go lessons Tabs too difficult? Try these video lessons and learn fast
1
                Tuning: BEADGBE

Note: This song was recorded on an 8 string guitar. It's been arranged for 7 string.

Intro
|-------------------|----------------------|------------------|------------|
|-------------------|----------------------|------------------|------------|
|-------------------|----------------------|------------------|------------|
|-------------------|---------------5---3--|---------------10-|-11-10-8-7-3|
|--5-5-5-5-5-3-5-5--|-5-5-6-5-6-5-3-3---1--|-5-5-5-5-5-3-5----|------------|
|--3-3-3-3-3-1-3-3--|-3-3-4-3-4-3-1-3-1-1--|-3-3-3-3-3-1-3-8--|-9--8--6-5-1|
|-------------------|----------------------|------------------|------------|
   . . . .       .    . .                    . . . . .

Verse
|-----------------|----------------------|------------------|------------|
|-----------------|----------------------|------------------|------------|
|-----------------|----------------------|------------------|------------|
|-----------------|-------5---5---3---3--|---------------10-|-11-10-8-7-3|
|-5-3-5-5-5-5-6-5-|---3---3---3---1---1--|-5-5-5-5-5-3-5----|------------|
|-3-1-3-3-3-3-4-3-|-x-1-x-3-x-3-x-1-x-1--|-3-3-3-3-3-1-3-8--|-9--8--6-5-1|
|-----------------|----------------------|------------------|------------|
                                                                            

|-------------------|----------------------|------------------|------------|
|-------------------|----------------------|------------------|------------|
|-------------------|----------------------|------------------|------------|
|-------------------|---------------5---3--|---------------10-|-11-10-8-7-3|
|--5-5-5-5-5-3-5-5--|-5-5-6-5-6-5-3-3---1--|-5-5-5-5-5-3-5----|------------|
|--3-3-3-3-3-1-3-3--|-3-3-4-3-4-3-1-3-1-1--|-3-3-3-3-3-1-3-8--|-9--8--6-5-1|
|-------------------|----------------------|------------------|------------|
   . . . .       .    . .                    . . . . .

|-------------------|----------------------|------------------|------------|
|-------------------|----------------------|------------------|------------|
|-------------------|----------------------|------------------|------------|
|-------------------|---------------5---3--|---------------10-|-11-10-8-7-3|
|--5-5-5-5-5-3-5-5--|-5-5-6-5-6-5-3-3---1--|-5-5-5-5-5-3-5----|------------|
|--3-3-3-3-3-1-3-3--|-3-3-4-3-4-3-1-3-1-1--|-3-3-3-3-3-1-3-8--|-9--8--6-5-1|
|-------------------|----------------------|------------------|------------|
   . . . .       .    . .                    . . . . .

Chorus Rhythm
|----------------------------|--------------|------------------------------|
|----------------------------|--------------|------------------------------|
|----------------------------|--------------|------------------------------|
|----------------------------|--------------|------------------------------|
|--5------5--5--5--3-(Let)---|--------------|--3------3--3--3--------------|
|--3------3--3--3--1-(ring)--|--------------|--1------1--1--1----6-(Let)---|
|----------------------------|--------------|--------------------4-(Ring)--|


Chorus Lead
|-------------------------|------------------------|-----------------------|
|--8-10-11-11-11-11-10-11-|--11-11-11-11-11-11-11--|10-11-11-11-11-11-10-11|
|-------------------------|------------------------|-----------------------|
|--5-7--8--8--8--8--7--8--|--8--8--8--8--8--8--8---|-7--8--8--8--8--8--7--8|
|-------------------------|------------------------|-----------------------|
|-------------------------|------------------------|-----------------------|
|-------------------------|------------------------|-----------------------|

|--------------------------|
|--11-11-11-11-11-11-11-11-|
|--------------------------|
|--8--8--8--8--8--8--8--8--|
|--------------------------|
|--------------------------|
|--------------------------|

Re-Entry
|-------------------|-------------------|------------------|---------------|
|-------------------|-------------------|------------------|---------------|
|-------------------|-------------------|------------------|---------------|
|-------------------|-------------------|------------------|--3---5---5---6|
|--5-5-5-5-5-5-5-5--|--5-5-5-5-5-5-5-5--|--5-5-5-5-5-5-5-5-|x-3-x-5-x-3-x-6|
|--3-3-3-3-3-3-3-3--|--3-3-3-3-3-3-3-3--|--3-3-3-3-3-3-3-3-|x-1-x-3-x-3-x-4|
|-------------------|-------------------|------------------|---------------|
   . . . . . . . .     . . . . . . . .     . . . . . . . . 
|-------------------|-------------------|------------------|---------------|
|-------------------|-------------------|------------------|---------------|
|-------------------|-------------------|------------------|---------------|
|-------------------|-------------------|----------------10|-11-10--8--7--3|
|--5-5-5-5-5-5-5-5--|--5-5-5-5-5-5-5-5--|--5-5-5-5-5-5-5---|---------------|
|--3-3-3-3-3-3-3-3--|--3-3-3-3-3-3-3-3--|--3-3-3-3-3-3-3-8-|--9--8--6--5--1|
|-------------------|-------------------|------------------|---------------|
   . . . . . . . .     . . . . . . . .     . . . .                  

|--17-----------------------------------|--17------------------------------|
|--20-----------------------------------|--20------------------------------|
|---------------------------------------|----------------------------------|
|---------------------------------------|----------------------------------|
|---------------------------------------|----------------------------------|
|---------------------------------------|----------------------------------|
|---------------------------------------|----------------------------------|

Mid-section
|-----------------|---------------|---------------|----------------|
|-----------------|---------------|---------------|----------------|
|-----------------|---------------|---------------|----------------|
|--6--6-6-6-6-5---|--5-5--5--5-5--|-6--6-6-6-6-5--|--5-5-5-5-------|
|-----------------|---------------|---------------|----------------|
|--4--4-4-4-4-3---|--3-3--3--3-3--|-4--4-4-4-4-3--|--3-3-3-3-------|
|-----------------|---------------|---------------|----------------|

|-----------------|---------------|---------------|----------------|
|-----------------|---------------|---------------|----------------|
|-----------------|---------------|---------------|----------------|
|--6--6-6-6-6-5---|--5-5--5--5-5--|-6--6-6-6-6-5--|--5-5-5-5-------|
|--6--6-6-6-6-5---|--5-5--5--5-5--|-6--6-6-6-6-5--|--5-5-5-5-------|
|--4--4-4-4-4-3---|--3-3--3--3-3--|-4--4-4-4-4-3--|--3-3-3-3-------|
|-----------------|---------------|---------------|----------------|

|-----------------|---------------|---------------|----------------|
|-----------------|---------------|---------------|----------------|
|-----------------|---------------|---------------|----------------|
|--6--6-6-6-6-5---|--5-5--5--5-5--|-6--6-6-6-6-5--|--5-5-5-5-------|
|--6--6-6-6-6-5---|--5-5--5--5-5--|-6--6-6-6-6-5--|--5-5-5-5-------|
|--4--4-4-4-4-3---|--3-3--3--3-3--|-4--4-4-4-4-3--|--3-3-3-3-------|
|-----------------|---------------|---------------|----------------|

(tremelo pick)
|--/16----15----16--18--|-------------|--/16----15----16--18--|----15-16-15|
|-----------------------|-------------|-----------------------|------------|
|-----------------------|-------------|-----------------------|------------|
|-----------------------|-------------|-----------------------|------------|
|-----------------------|-------------|-----------------------|------------|
|-----------------------|-------------|-----------------------|------------|
|-----------------------|-------------|-----------------------|------------|

|-11-11-11-11-11-11-13-13--|--13-13-13-13-13-13-13-13--|
|-11-11-11-11-11-11-11-11--|--11-11-11-11-11-11-11-11--|
|--------------------------|---------------------------|
|--------------------------|---------------------------|
|--------------------------|---------------------------|
|--------------------------|---------------------------|
|--------------------------|---------------------------|

|-11-11-11-11-11-11-10-10--|--10-10-10-10-10-10-10-10--|
|-11-11-11-11-11-11-11-11--|--11-11-11-11-11-11-11-11--|
|--------------------------|---------------------------|
|--------------------------|---------------------------|
|--------------------------|---------------------------|
|--------------------------|---------------------------|
|--------------------------|---------------------------|

Build up
|-----------------|---------------|---------------|----------------|
|-----------------|---------------|---------------|----------------|
|-----------------|---------------|---------------|----------------|
|--6--6-6-6-6-5---|--5-5--5--5-5--|-6--6-6-6-6-5--|--5-5-5-5-------|
|-----------------|---------------|---------------|----------------|
|--4--4-4-4-4-3---|--3-3--3--3-3--|-4--4-4-4-4-3--|--3-3-3-3-------|
|-----------------|---------------|---------------|----------------|

|----------------------------------|----------------------------------|
|----------------------------------|----------------------------------|
|----------------------------------|----------------------------------|
|--5---5---5---5---5---5---5---5---|--5---5---5---5---5---5---5---5---|
|----------------------------------|----------------------------------|
|--3---3---3---3---3---3---3---3---|--3---3---3---3---3---3---3---3---|
|----------------------------------|----------------------------------|

Outro
|------------------------|---------------------|
|------------------------|---------------------|
|------------------------|---------------------|
|------------------------|---------------------|  X 2
|--5--5----5--5--5----5--|--5--5------3-4-3----|
|--3--3----3--3--3----3--|--3--3--1-3-------6--|
|------------------------|---------------------|

|------------------------|---------------------|--------------|------------|
|------------------------|---------------------|--------------|------------|
|------------------------|---------------------|--------------|------------|
|------------------------|---------------------|--------------|------------|
|--5--5----5--5--5----5--|--5--5------3-4-3----|--3--3-3-3-6--|--6--6--6--8|
|--3--3----3--3--3----3--|--3--3--1-3-------6--|--3--3-3-3-6--|--6--6--6--8|
|------------------------|---------------------|--1--1-1-1-4--|--4--4--4--6|

Lead Outro
|--------------------------------------------------------------------|
|--------------------------------------------------------------------|
|-10/12-12-12-12-12-12-12-12-12-12-12-12-12-12-12/15-15-15-15-15-15--|
|--------------------------------------------------------------------|
|--8/10-10-10-10-10-10-10-10-10-10-10-10-10-10-10/13-13-13-13-13-13--|
|--------------------------------------------------------------------|
|--------------------------------------------------------------------|
                                                               
|--------------------------------------------------------------------|
|--------------------------------------------------------------------|
|--12-12-12-12-12-12-12-12-12-12-12-12-12-12-12\-9----9----10-12-----|
|--------------------------------------------------------------------|
|--10-10-10-10-10-10-10-10-10-10-10-10-10-10-10\-7----7----8-/10-----|
|--------------------------------------------------------------------|
|--------------------------------------------------------------------|

Enjoy!

- Rob.
            
Submit corrections

comments powered by Disqus
↑ Back to top | Unearth Tabs for Letting Go. Lyrics for acoustic guitar and electric guitar. 1 Tablatures and chords are parodies/interpretations of the original songs. You may use it for private study, scholarship, research or language learning purposes only