» » »

Internal War Tabs (ver.1)

Artists:  A B C D E F G H I J K L M N O P Q R S T U V W X Y Z # 

Internal War Tabs (ver.1)

Unearth
Rating:
3/5 (1 vote)

Hard to play? Try these video lessons and learn fast.
                

Drop Cb Tuning

Riff 1-Guitar 1
---------------------------|--------------------------------------------------
---------------------------|--------------------------------------------------
---------------------------|--------------------------------------------------
-0--1--3-1-0--00--01--3-1-0|--------------------------------------------------
-0--1--3-1-0--00--01--3-1-0|--------------------------------------------------
-0--1--3-1-0--00--01--3-1-0|--------------------------------------------------
 Guitar 2
------------------------------------------------------------------------|-----
------------------------------------------------------------------------|-----
-------14----14----------14----14----------14----14----------14-------12|-----
-12-12----12----12-------------------13-13----13----13-15-15----13-13---|-----
-------------------13-13----13----13------------------------------------|-----
------------------------------------------------------------------------|-----
 Riff 2 Guitar 1(Speed Picking)
-----------------------------------------|----------------------------|-------
-----------------------------------------|----------------------------|-------
-----------------------------------------|----------------------------|-------
-0--7-8-7-5-7-8-7------------------------|0-7-8-7-5-10--8-7-12-10-8-7-|-------
------------------6--8-6-5---------------|----------------------------|-------
---------------------------87656554343210|----------------------------|-------
 Guitar 2(exactly the same except for the first time through)
-----------------------------------------|------------------------------------|
-----------------------------------------|------------------------------------|
-----------------------------------------|------------------------------------|
-----------------------------------------|0-14-15-14-12-17--15-14-19-17-15-14-|
-----------------------------------------|------------------------------------|
-----------------------------------------|------------------------------------|
 Riff 3(Part 1)
------------------------------------------------------------------------------
------------------------------------------------------------------------------
-8\77--------8\77--------8\77--------8\77-5-7-8-7-----------------------------
-8\77-0-00-0-8\77-0-00-0-8\77-0-00-0-8\77-------------------------------------
-6\55-0-00-0-6\55-0-00-0-6\55-0-00-0-6\55-------------------------------------
------0-00-0------0-00-0------0-00-0------------------------------------------
 Riff 3(Part 2)                                                               
------------------------------------------------------------------------------
------------------------------------------------------------------------------
------------------------------------------5-7-8-7-----------------------------
-1p00-0-00-0-1p00-0-00-0-1p00-0-00-0-1p00-------------------------------------
-1p00-0-00-0-1p00-0-00-0-1p00-0-00-0-1p00-------------------------------------
-1p00-0-00-0-1p00-0-00-0-1p00-0-00-0-1p00-------------------------------------
 Riff 4 Guitar 1                                                               
------------------------------------------------------------------------------
------------------------------------------------------------------------------
------------------------------------------------------------------------------
------------------------------------------------------------------------------
-3---6-------4----------------------------------------------------------------
---------6--------------------------------------------------------------------
 Guitar 2(Speed Picking)                                                              
------------------------------------------------------------------------------
------------------------------------------------------------------------------
------------------------------------------------------------------------------
-10-12-13-12-13-12-8--12-13-15-13-12-10--12-13-12-13-12-8--12-13-15-12-10-----
------------------------------------------------------------------------------
------------------------------------------------------------------------------
 guitar 2 continued                                                      
------------------------------------------------------------------------------
------------------------------------------------------------9-8-6-4-----------
--12-13-12-15-13-12-10-13-12-10-8-10-8-7-3/5-7-8-7-10-8-7-5-------------------
--------------------------------------------------------------------0000------
--------------------------------------------------------------------0000------
--------------------------------------------------------------------0000------
                                                                        Back to riff 3    
 Riff 5(i don't know that little lead thing but you can figure out if i don't)
------------------------------------------------------------------------------
------------------------------------------------------------------------------
------------------------------------------------------------------------------
-0-0-0-0-2h3p2p0-0-0----------------------------------------------------------
-0-0-0-0-2h3p2p0-0-0-5-787-535------------------------------------------------
-0-0-0-0-2h3p2p0-0-0----------------------------------------------------------
 riff 6 Guitar 1         
------------------------------------------------------------------------------
--------16-16-16--------16-16-16-16-16-16------------16-16-16-----------------
--------19-19-19--------19-19-19-19-19-19------------19-19-19-----------------
-000000----------000000-------------------///-000000--------------------------
-000000----------000000-------------------///-000000--------------------------
-000000----------000000-------------------///-000000--------------------------
 Guitar 2                                                              
------------------------------------------------------------------------------
--------16-16-16--------16-16-16-16-16-16-------------------------------------
--------19-19-19--------19-19-19-19-19-19------------13-13-13-----------------
-000000----------000000-------------------///-000000-13-13-13-----------------
-000000----------000000-------------------///-000000-10-10-10-----------------
-000000----------000000-------------------///-000000--------------------------
 Riff 7                                                                     
------------------------------------------------------------------------------
------------------------------------------------------------------------------
------------------------------------------------------------------------------
-00000000----3-1-4-3-0-3-000000000--------------------------------------------
-00000000----3-1-4-3-0-3-000000000----5-5-5-5-5-------------------------------
-00000000-78-3-1-4-3-0-3-000000000-78-----------------------------------------

THIS IS THE GREATEST SONG!!
            
Hard to play? Try these video lessons and learn fast. | Correct




comments powered by Disqus
↑ Back to top | Tablatures and chords are parodies/interpretations of the original songs. You may use it for private study, scholarship, research or language learning purposes only