>
 >
Endless 1

Endless 1 Guitar Tabs

Unearth - Endless 1 chords, tabs, tablatures, lyrics

Guitar lessons | Add/correct | Request | Top 50 tabs Artists:  A B C D E F G H I J K L M N O P Q R S T U V W X Y Z 0-9

Endless 1 Guitar Tabs – Unearth

CD, Sheet music, Poster

Do you like Endless 1? Share with your friends now
Bass TabsTabsTabs v2
----------------------------------------------------------------------------
                             Endless Unearth - Unearth
----------------------------------------------------------------------------





 Tuning:

Guitar 1: B F# B E G# C#
Guitar 2: B F# B E G# C#





 Intro:

  Guitar 1:
  PM------|             PM----|
|-------------------------------|--------------------------------|
|-------------------------------|--------------------------------|
|-------------------------------|--------------------------------|
|-------------------------------|---------------3-3-3-3-2-2------|
|-------------5-5-5-5-5---------|---5-5-3-3-5-5-------------5-5--|
|-0-0-0-0-0-------------0-0-0-0-|-0------------------------------|


  Guitar 2:
  PM------|             PM----|
|-------------------------------|--------------------------------|
|-------------------------------|--------------------------------|
|-------------------------------|--------------------------------|
|-------------------------------|---------------3-3-3-3-2-2------|
|-------------5-5-5-5-5---------|---5-5-3-3-5-5-------------5-5--|
|-0-0-0-0-0-------------0-0-0-0-|-0------------------------------|


  PM------|             PM--|
|-----------------------------|---------------------------------|
|-----------------------------|---------------------------------|
|-----------------------------|---------------------------------|
|-----------------------------|---------0-0-------------7-7-5-5-|
|-------------5-5-5-5-5-------|-1-1-1-1-----1-1-3-3-3-3---------|
|-0-0-0-0-0-------------0-0-0-|---------------------------------|


  PM------|             PM--|
|-----------------------------|---------------------------------|
|-----------------------------|---------------------------------|
|-----------------------------|---------------------------------|
|-----------------------------|---------0-0-------------3-3-2-2-|
|-------------5-5-5-5-5-------|-1-1-1-1-----1-1-3-3-3-3---------|
|-0-0-0-0-0-------------0-0-0-|---------------------------------|


  PM------|             PM----|
|-------------------------------|-------------------------------|
|-------------------------------|-------------------------------|
|-------------------------------|-------------------------------|
|-------------------------------|---------------3-3-3-3-2-2-----|
|-------------5-5-5-5-5---------|---5-5-3-3-5-5-------------5-5-|
|-0-0-0-0-0-------------0-0-0-0-|-0-----------------------------|


  PM------|             PM----|
|-------------------------------|-------------------------------|
|-------------------------------|-------------------------------|
|-------------------------------|-------------------------------|
|-------------------------------|---------------3-3-3-3-2-2-----|
|-------------5-5-5-5-5---------|---5-5-3-3-5-5-------------5-5-|
|-0-0-0-0-0-------------0-0-0-0-|-0-----------------------------|


  PM------|             PM--|
|-----------------------------|---------------------------------|
|-----------------------------|---------------------------------|
|-----------------------------|---------------------------------|
|-----------------------------|---------0-0-------------7-7-5-5-|
|-------------5-5-5-5-5-------|-1-1-1-1-----1-1-3-3-3-3---------|
|-0-0-0-0-0-------------0-0-0-|---------------------------------|


  PM------|             PM--|
|-----------------------------|---------------------------------|
|-----------------------------|---------------------------------|
|-----------------------------|---------------------------------|
|-----------------------------|---------0-0-------------3-3-2-2-|
|-------------5-5-5-5-5-------|-1-1-1-1-----1-1-3-3-3-3---------|
|-0-0-0-0-0-------------0-0-0-|---------------------------------|


 Verse:
  PM------|             PM----|
|-------------------------------|-------------------------------|
|-------------------------------|-------------------------------|
|-------------------------------|-------------------------------|
|-------------------------------|---------------3-3-3-3-2-2-----|
|-------------5-5-5-5-5---------|---5-5-3-3-5-5-------------5-5-|
|-0-0-0-0-0-------------0-0-0-0-|-0-----------------------------|


  PM------|             PM----|
|-------------------------------|-------------------------------|
|-------------------------------|-------------------------------|
|-------------------------------|-------------------------------|
|-------------------------------|---------------3-3-3-3-2-2-----|
|-------------5-5-5-5-5---------|---5-5-3-3-5-5-------------5-5-|
|-0-0-0-0-0-------------0-0-0-0-|-0-----------------------------|


  PM------|             PM--|
|-----------------------------|---------------------------------|
|-----------------------------|---------------------------------|
|-----------------------------|---------------------------------|
|-----------------------------|---------0-0-------------7-7-5-5-|
|-------------5-5-5-5-5-------|-1-1-1-1-----1-1-3-3-3-3---------|
|-0-0-0-0-0-------------0-0-0-|---------------------------------|


  PM------|             PM--|
|-----------------------------|---------------------------------|
|-----------------------------|---------------------------------|
|-----------------------------|---------------------------------|
|-----------------------------|---------0-0-------------3-3-2-2-|
|-------------5-5-5-5-5-------|-1-1-1-1-----1-1-3-3-3-3---------|
|-0-0-0-0-0-------------0-0-0-|---------------------------------|


  PM------|             PM----|
|-------------------------------|-------------------------------|
|-------------------------------|-------------------------------|
|-------------------------------|-------------------------------|
|-------------------------------|---------------3-3-3-3-2-2-----|
|-------------5-5-5-5-5---------|---5-5-3-3-5-5-------------5-5-|
|-0-0-0-0-0-------------0-0-0-0-|-0-----------------------------|


  PM------|             PM----|
|-------------------------------|-------------------------------|
|-------------------------------|-------------------------------|
|-------------------------------|-------------------------------|
|-------------------------------|---------------3-3-3-3-2-2-----|
|-------------5-5-5-5-5---------|---5-5-3-3-5-5-------------5-5-|
|-0-0-0-0-0-------------0-0-0-0-|-0-----------------------------|


  PM------|             PM--|
|-----------------------------|---------------------------------|
|-----------------------------|---------------------------------|
|-----------------------------|---------------------------------|
|-----------------------------|---------0-0-------------7-7-5-5-|
|-------------5-5-5-5-5-------|-1-1-1-1-----1-1-3-3-3-3---------|
|-0-0-0-0-0-------------0-0-0-|---------------------------------|


  PM------|             PM--|
|-----------------------------|---------------------------------|
|-----------------------------|---------------------------------|
|-----------------------------|---------------------------------|
|-----------------------------|---------0-0-------------3-3-2-2-|
|-------------5-5-5-5-5-------|-1-1-1-1-----1-1-3-3-3-3---------|
|-0-0-0-0-0-------------0-0-0-|---------------------------------|




 Breakdown:

PM-----------------------------------------------------------------------|

|-------------------------|-------------------------|---------------------|
|-------------------------|-------------------------|---------------------|
|-------------------------|-------------------------|---------------------|
|-3-----3-----3-----3-----|-2-----2-----2-----2-----|-0---0----0----0-----|
|---5-5---5-5---5-5---5-5-|---3-3---3-3---3-3---3-3-|--1-1--1-1--1-1--1-1-|
|-------------------------|-------------------------|---------------------|


  PM---------------------------------------------------------------------|
|-------------------------|-------------------------|---------------------|
|-------------------------|-------------------------|---------------------|
|-------------------------|-------------------------|---------------------|
|-7-----7-----7-----7-----|-5-----5-----5-----5-----|3----3----3----3-----|
|---8-8---8-8---8-8---8-8-|---7-7---7-7---7-7---7-7-|--5-5--5-5--5-5--5-5-|
|-------------------------|-------------------------|---------------------|


  PM--------------------------------------------------------------------|
|---------------------|-------------------------|-------------------------|
|---------------------|-------------------------|-------------------------|
|---------------------|-------------------------|-------------------------|
|-2-----2-----2--3--5-|-3-----3-----3-----3-----|-2-----2-----2-----2-----|
|---3-3---3-3---------|---5-5---5-5---5-5---5-5-|---3-3---3-3---3-3---3-3-|
|---------------------|-------------------------|-------------------------|


  PM--------|           PM----------------------------------------------|
|---------------------|-------------------------|-------------------------|
|---------------------|-------------------------|-------------------------|
|---------------------|-------------------------|-------------------------|
|-5-----5-----5--7--8-|-7-----7-----7-----7-----|-5-----5-----5-----5-----|
|---7-7---7-7---------|---8-8---8-8---8-8---8-8-|---7-7---7-7---7-7---7-7-|
|---------------------|-------------------------|-------------------------|


                                                 Breakdown:
  PM----------------------------------|             PM|       PM|
|-------------------------|---------------------|---------------------|
|-------------------------|---------------------|---------------------|
|-------------------------|---------------------|---------------------|
|-0-----0-----0-----0-----|-2-----2-----2--3--5-|-3---------3---------|
|---1-1---1-1---1-1---1-1-|---3-3---3-3---------|---5-5-5-5---5-5-5-5-|
|-------------------------|---------------------|---------------------|


  PM------------------------------------------|     PM|       PM|
|-------------------------|---------------------|---------------------|
|-------------------------|---------------------|---------------------|
|-------------------------|---------------------|---------------------|
|-3-----3-----3-----3-----|-5-----5-----5--7--8-|-7---------7---------|
|---5-5---5-5---5-5---5-5-|---7-7---7-7---------|---8-8-8-8---8-8-8-8-|
|-------------------------|---------------------|---------------------|


    PM|       PM|         PM|       PM|       PM--------------|
|---------------------|---------------------|----------------------------|
|---------------------|---------------------|----------------------------|
|---------------------|---------------------|----------------------------|
|-2---------2---------|-0---------0---------|-2---------2-------2--3--5--|
|---3-3-3-3---3-3-3-3-|---1-1-1-1---1-1-1-1-|---3---3-----3---3----------|
|---------------------|---------------------|----------------------------|


    PM|       PM|         PM|       PM|           PM--|         PM----|
|---------------------|---------------------|----------------------------|
|---------------------|---------------------|----------------------------|
|---------------------|---------------------|----------------------------|
|-5---------5---------|-3---------3---------|-5-----------------5--7--8--|
|---7-7-7-7---7-7-7-7-|---5-5-5-5---5-5-5-5-|-----7---7-7---7------------|
|---------------------|---------------------|----------------------------|


    PM|       PM|         PM|       PM|         PM|       PM|
|---------------------|---------------------|----------------------|
|---------------------|---------------------|----------------------|
|---------------------|---------------------|----------------------|
|-3---------3---------|-2---------2---------|-0---------0----------|
|---5-5-5-5---5-5-5-5-|---3-3-3-3---3-3-3-3-|---1-1-1-1---1-1-1-1--|
|---------------------|---------------------|----------------------|


    PM|       PM|         PM|       PM|         PM|       PM|
|---------------------|---------------------|----------------------|
|---------------------|---------------------|----------------------|
|---------------------|---------------------|----------------------|
|-7---------7---------|-5---------5---------|-3---------3----------|
|---8-8-8-8---8-8-8-8-|---7-7-7-7---7-7-7-7-|---5-5-5-5---5-5-5-5--|
|---------------------|---------------------|----------------------|


|------------------------------|-------------------|
|------------------------------|-------------------|
|---------------3-2------2-----|-5-3-2-3-2---5--7--|
|-------2-3-2----------5---5-3-|-----------3-5--7--|
|-3-5---------3----------------|-------------3--5--|
|------------------------------|-------------------|


|------------------------------|-------------------|
|------------------------------|-------------------|
|------------------------------|-------------------|
|------------------------------|-------------5--7--|
|-3----------------------------|-------------3--5--|
|-3----------------------------|-------------------|


 Interlude:
|---------------------------|----------------------------|
|---------------------------|----------------------------|
|---------------------------|----------------------------|
|---------------------------|----------------------------|
|---------------------------|----------------------------|
|--0----0---0-0-----0-0---0-|---0------------0-0---0-0---|


|---------------------------|----------------------------|
|--8------------------------|--(8)-----------------------|
|-11b13r--------------------|-(11)-----------------------|
|---------------------------|----------------------------|
|---------------------------|----------------------------|
|---------------------------|----------------------------|



|-----------------------------------------------|
|-----------------------------------------------|
|-----------------------------------------------|
|-----------------------------------------------|
|-----------------------------------------------|
|---0--0---0-0----------------0---0---------0---|


|-----------------------------------------------|
|--(8)------------(8)----8-------(8)--(8)--(8)--|
|-(11)-----------(11)---11b13r--(11)-(11)-(11)--|
|-----------------------------------------------|
|-----------------------------------------------|
|-----------------------------------------------|


|--------------------------|----------------------------|
|--------------------------|----------------------------|
|--------------------------|----------------------------|
|--------------------------|----------------------------|
|--------------------------|----------------------------|
|---0------0-0---0-0-------|--------0-0---0-0---0-0---0-|


|--------------------------|----------------------------|
|--(8)---------------------|--(8)-----------------------|
|-(11)---------------------|-(11)-----------------------|
|--------------------------|----------------------------|
|--------------------------|----------------------------|
|--------------------------|----------------------------|


|------------------------------------------------|
|------------------------------------------------|
|------------------------------------------------|
|------------------------------------------------|
|------------------------------------------------|
|---0------------------0------0---0-0------------|



|------------------------------------------------|
|--(8)--(8)--(8)--8-------(8)--------------(8)---|
|-(11)-(11)-(11)-11b13r==(11)-------------(11)---|
|------------------------------------------------|
|------------------------------------------------|
|------------------------------------------------|


|----------------------------|----------------------------|
|----------------------------|----------------------------|
|----------------------------|----------------------------|
|----------------------------|----------------------------|
|----------------------------|----------------------------|
|---0--0---0-0-----------0-0-|------0-0---0-0---0-0-------|


|----------------------------|----------------------------|
|--(8)-----------------------|--(8)-----------------------|
|-(11)-----------------------|-(11)-----------------------|
|----------------------------|----------------------------|
|----------------------------|----------------------------|
|----------------------------|----------------------------|



|------------------------------|
|------------------------------|
|------------------------------|
|------------------------------|
|------------------------------|
|--0----0---0-0-------0-0---0--|


|---------------|
|--8------------|
|-11b13r--------|
|---------------|
|---------------|
|---------------|


  
|----------------------------|
|----------------------------|
|----------------------------|
|----------------------------|
|----------------------------|
|---0------------0-0---0-0---|


|----------------------------|
|--(8)-----------------------|
|-(11)-----------------------|
|----------------------------|
|----------------------------|
|----------------------------|



|--------------------------------------------------------|
|--------------------------------------------------------|
|------------[9]-(9)-(9)-(9)-(9)-(9)-(9)-(9)-(9)-(9)-(9)-|
|------------[9]-(9)-(9)-(9)-(9)-(9)-(9)-(9)-(9)-(9)-(9)-|
|------------[9]-(9)-(9)-(9)-(9)-(9)-(9)-(9)-(9)-(9)-(9)-|
|---0--0---0---------------------------------------------|


|--------------------------------------------------------|
|--(8)---------------------------------------------------|
|-(11)---------------------------------------------------|
|--------------------------------------------------------|
|--------------------------------------------------------|
|--------------------------------------------------------|


 Breakdown:
|---------------------|-------------------------|--------------------------|
|---------------------|-------------------------|--------------------------|
|-(9)-----------------|-------------------------|--------------------------|
|-(9)-----------------|-------------------------|--------------------------|
|-(9)-0-0---0-0-------|-0-0---0-0-----------0-0-|---0-0---0-0---0-0--------|
|-----0-0---0-0-------|-0-0---0-0-----------0-0-|---0-0---0-0---0-0--------|


|---------------------|-------------------------|--------------------------|
|---------------------|-------------------------|--------------------------|
|--9------------------|-------------------------|--------------------------|
|--9------------------|-------------------------|--------------------------|
|--9--0-0---0-0-------|-0-0---0-0-----------0-0-|---0-0---0-0---0-0--------|
|-----0-0---0-0-------|-0-0---0-0-----------0-0-|---0-0---0-0---0-0--------|




|-------------------------|---------------------|--------------------------|
|-------------------------|---------------------|--------------------------|
|-------------------------|---------------------|--------------------------|
|-------------------------|---------------------|--------------------------|
|-0-0---0-0-------0-0---0-|-0-------0-0---0-0---|-0-0---0-0-------0-0---0--|
|-0-0---0-0-------0-0---0-|-0-------0-0---0-0---|-0-0---0-0-------0-0---0--|


|-------------------------|-----------------------|------------------------|
|-------------------------|-----------------------|------------------------|
|-------------------------|-----------------------|------------------------|
|-------------------------|-----------------------|------------------------|
|-0-0---0-0-------0-0---0-|-0---------0-0---0-0---|-0-0---0-0-----0-0---0--|
|-0-0---0-0-------0-0---0-|-0---------0-0---0-0---|-0-0---0-0-----0-0---0--|


|------------------------|----------------------|--------------------------|
|------------------------|----------------------|--------------------------|
|------------------------|----------------------|--------------------------|
|------------------------|----------------------|--------------------------|
|-0-------0-0---0-0------|--0-0---0-0---0-0---0-|-0-------0-0---0-0--------|
|-0-------0-0---0-0------|--0-0---0-0---0-0---0-|-0-------0-0---0-0--------|


|-------------------------|-----------------------|------------------------|
|-------------------------|-----------------------|------------------------|
|-------------------------|-----------------------|------------------------|
|-------------------------|-----------------------|------------------------|
|-0-------0-0---0-0-------|---0-0---0-0---0-0---0-|-0-----0-0---0-0--------|
|-0-------0-0---0-0-------|---0-0---0-0---0-0---0-|-0-----0-0---0-0--------|



|-------------------------|----------------------|-------------------------|
|-------------------------|----------------------|-------------------------|
|-------------------------|----------------------|-------------------------|
|-------------------------|----------------------|-------------------------|
|-0-0---0-0-----------0-0-|---0-0---0-0---0-0----|-0-0---0-0------0-0---0--|
|-0-0---0-0-----------0-0-|---0-0---0-0---0-0----|-0-0---0-0------0-0---0--|


|-------------------------|----------------------|-------------------------|
|-------------------------|----------------------|-------------------------|
|-------------------------|----------------------|-------------------------|
|-------------------------|----------------------|-------------------------|
|-0-0---0-0-----------0-0-|---0-0---0-0---0-0----|-0-0---0-0------0-0---0--|
|-0-0---0-0-----------0-0-|---0-0---0-0---0-0----|-0-0---0-0------0-0---0--|



|---------------------------------------|
|---------------------------------------|
|---------------------------------------|
|---------------------------------------|
|-0-----------------0--0------0--0------|
|-0-----------------0--0------0--0------|


|---------------------------------------|
|---------------------------------------|
|---------------------------------------|
|-----7-(7)-(7)-(7)-3-(3)-(3)-5-(5)-(5)-|
|-----5-(5)-(5)-(5)-1-(1)-(1)-3-(3)-(3)-|
|---------------------------------------|


|-------------------------|----------------------------|
|-------------------------|----------------------------|
|-------------------------|----------------------------|
|-------------------------|----------------------------|
|-0-0---0-0-------0-0---0-|-0-------0-0---0-0----------|
|-0-0---0-0-------0-0---0-|-0-------0-0---0-0----------|


|-------------------------|----------------------------|
|-------------------------|----------------------------|
|-5-----4-----------------|----------------------------|
|-3-----2-----5-----------|---------------------7-(7)--|
|-------------3-----------|---------------------5-(5)--|
|-------------------------|----------------------------|


|-----------------------------------------|
|-----------------------------------------|
|-----------------------------------------|
|-----------------------------------------|
|---------0--0------0--0------0--0------0-|
|---------0--0------0--0------0--0------0-|


|-----------------------------------------|
|-----------------------------------------|
|-----------------------------5-(5)-(5)-4-|
|-(7)-(7)-3-(3)-(3)-5-(5)-(5)-3-(3)-(3)-2-|
|-(5)-(5)-1-(1)-(1)-3-(3)-(3)-------------|
|-----------------------------------------|



|---------------------------------|----------------------------------|
|---------------------------------|----------------------------------|
|---------------------------------|----------------------------------|
|---------------------------------|----------------------------------|
|--0-------------0--0---0-0-------|-0-0---0-0-----------------0--0---|
|--0-------------0--0---0-0-------|-0-0---0-0-----------------0--0---|


|---------------------------------|----------------------------------|
|---------------------------------|----------------------------------|
|-(4)-(4)-------------------------|----------------------------------|
|-(2)-(2)-5-(5)-(5)---------------|-------------7-(7)-(7)-(7)-3-(3)--|
|---------3-(3)-(3)---------------|-------------5-(5)-(5)-(5)-1-(1)--|
|---------------------------------|----------------------------------|



|-----------------------------------------|
|-----------------------------------------|
|-----------------------------------------|
|-----------------------------------------|
|-----0--0------0--0------0--0------------|
|-----0--0------0--0------0--0------------|


|-----------------------------------------|
|-----------------------------------------|
|---------------5-(5)-(5)-4-(4)-(4)-------|
|-(3)-5-(5)-(5)-3-(3)-(3)-2-(2)-(2)-5-(5)-|
|-(1)-3-(3)-(3)---------------------3-(3)-|
|-----------------------------------------|



|-------------------------|----------------------------------------|
|-------------------------|----------------------------------------|
|-------------------------|----------------------------------------|
|-------------------------|----------------------------------------|
|-0-0---0-0-------0-0---0-|-0-----------------0--0------0--0-------|
|-0-0---0-0-------0-0---0-|-0-----------------0--0------0--0-------|


|-------------------------|----------------------------------------|
|-------------------------|----------------------------------------|
|-------------------------|----------------------------------------|
|-------------------------|-----7-(7)-(7)-(7)-3-(3)-(3)-5-(5)-(5)--|
|-------------------------|-----5-(5)-(5)-(5)-1-(1)-(1)-3-(3)-(3)--|
|-------------------------|----------------------------------------|


                     Harmony Section:

|-------------------|--------------|-------------|
|-------------------|--------------|-------------|
|-------------------|-7----(7)--5--|-7--8--7--5--|
|-------------------|--------------|-------------|
|-0-0---0-0---------|-5----(5)--3--|-5--6--5--3--|
|-0-0---0-0---------|--------------|-------------|


|-------------------|--------------|-------------|
|-------------------|--------------|-------------|
|-5-----4-----------|-7----(7)--5--|-7--8--7--5--|
|-3-----2-----5-----|--------------|-------------|
|-------------3-----|-5----(5)--3--|-5--6--5--3--|
|-------------------|--------------|-------------|



|-------------------------|---------------------------|
|-------------------------|---------------------------|
|--7-----(7)-------5------|--7------8-----7-------5---|
|-------------------------|---------------------------|
|--5-----(5)-------3------|--5------6-----5-------3---|
|-------------------------|---------------------------|

                                                  PM|
|-------------------------|---------------------------|
|-------------------------|---------------------------|
|-12----(12)-(12)-12-(12)-|-12-14-(14)--(14)-(14)-----|
|-------------------------|---------------------------|
|-10----(10)-(10)-10-(10)-|-10-12-(12)--(12)-(12)-0-0-|
|-------------------------|-----------------------0-0-|


 
|--------------|-------------|
|--------------|-------------|
|-7----(7)--5--|-7--8--7--5--|
|--------------|-------------|
|-5----(5)--3--|-5--6--5--3--|
|--------------|-------------|


|--------------|-------------|
|--------------|-------------|
|-7----(7)--5--|-7--8--7--5--|
|--------------|-------------|
|-5----(5)--3--|-5--6--5--3--|
|--------------|-------------|


   
|-------------|----------|--------------|-------------|
|-------------|----------|--------------|-------------|
|--3----------|-5--------|-7----(7)--5--|-7--8--7--5--|
|-------------|----------|--------------|-------------|
|--1----------|-3--------|-5----(5)--3--|-5--6--5--3--|
|-------------|----------|--------------|-------------|


|-------------|----------|--------------|-------------|
|-------------|----------|--------------|-------------|
|-10----14----|-9--------|-7----(7)--5--|-7--8--7--5--|
|-------------|----------|--------------|-------------|
|--8----12----|-7--------|-5----(5)--3--|-5--6--5--3--|
|-------------|----------|--------------|-------------|


  
|-------------------------|---------------------------|
|-------------------------|---------------------------|
|--7-----(7)-------5------|--7------8-----7-------5---|
|-------------------------|---------------------------|
|--5-----(5)-------3------|--5------6-----5-------3---|
|-------------------------|---------------------------|


                                                 PM|
|-------------------------|---------------------------|
|-------------------------|---------------------------|
|-12----(12)-(12)-12-(12)-|-12-14-(14)--(14)-(14)-----|
|-------------------------|---------------------------|
|-10----(10)-(10)-10-(10)-|-10-12-(12)--(12)-(12)-0-0-|
|-------------------------|-----------------------0-0-|



|--------------|-------------|
|--------------|-------------|
|-7----(7)--5--|-7--8--7--5--|
|--------------|-------------|
|-5----(5)--3--|-5--6--5--3--|
|--------------|-------------|


|--------------|-------------|
|--------------|-------------|
|-7----(7)--5--|-7--8--7--5--|
|--------------|-------------|
|-5----(5)--3--|-5--6--5--3--|
|--------------|-------------|


                          Bridge:

                                       PM|               PM|
|-------------|----------|-----------------------|-----------------------|
|-------------|----------|-----------------------|-----------------------|
|--3----------|-5--------|-12-12-12-12-----14-14-|-14-14-----15-15-15-15-|
|-------------|----------|-----------------------|-----------------------|
|--1----------|-3--------|-10-10-10-10-0-0-12-12-|-12-12-0-0-13-13-13-13-|
|-------------|----------|-------------0-0-------|-------0-0-------------|


                                      PM|               PM|
|-------------|----------|-----------------------|-----------------------|
|-------------|----------|-----------------------|-----------------------|
|-10----14----|-9--------|-12-12-12-12-----14-14-|-14-14-----19-19-19-19-|
|-------------|----------|-----------------------|-----------------------|
|--8----12----|-7--------|-10-10-10-10-0-0-12-12-|-12-12-0-0-17-17-17-17-|
|-------------|----------|-------------0-0-------|-------0-0-------------|



  PM|                                 PM|
|-----------------------|-----------------------|
|-----------------------|-----------------------|
|-----17-17-15-15-14-15-|-12-12-12-12-----14-14-|
|-----------------------|-----------------------|
|-0-0-15-15-13-13-12-13-|-10-10-10-10-0-0-12-12-|
|-0-0-------------------|-------------0-0-------|


                                      PM|
|-----------------------|-----------------------|
|-----------------------|-----------------------|
|-----17----17----17-19-|-12-12-12-12-----14-14-|
|-----------------------|-----------------------|
|-0-0-15----15----15-17-|-10-10-10-10-0-0-12-12-|
|-0-0-------------------|-------------0-0-------|


       
        PM|               PM|
|-----------------------|-----------------------|
|-----------------------|-----------------------|
|-14-14-----15-15-15-15-|-----17-17-15-15-14-15-|
|-----------------------|-----------------------|
|-12-12-0-0-13-13-13-13-|-0-0-15-15-13-13-12-13-|
|-------0-0-------------|-0-0-------------------|


        PM|               PM|
|-----------------------|-----------------------|
|-----------------------|-----------------------|
|-14-14-----10-10-10-10-|-----14-15-15----14-15-|
|-----------------------|-----------------------|
|-12-12-0-0--8--8--8--8-|-0-0-12-13-13----12-13-|
|-------0-0-------------|-0-0-------------------|


          
              PM|               PM|
|-----------------------|-----------------------|
|-----------------------|-----------------------|
|-12-12-12-12-----14-14-|-14-14-----15-15-15-15-|
|-----------------------|-----------------------|
|-10-10-10-10-0-0-12-12-|-12-12-0-0-13-13-13-13-|
|-------------0-0-------|-------0-0-------------|


              PM|               PM|
|-----------------------|-----------------------|
|-----------------------|-----------------------|
|-12-12-12-12-----14-14-|-14-14-----19-19-19-19-|
|-----------------------|-----------------------|
|-10-10-10-10-0-0-12-12-|-12-12-0-0-17-17-17-17-|
|-------------0-0-------|-------0-0-------------|



  PM|                                 PM|
|-----------------------|-----------------------|
|-----------------------|-----------------------|
|-----17-17-15-15-14-15-|-12-12-12-12-----14-14-|
|-----------------------|-----------------------|
|-0-0-15-15-13-13-12-13-|-10-10-10-10-0-0-12-12-|
|-0-0-------------------|-------------0-0-------|
                                    
 PM|                                  PM|
|-----------------------|-----------------------|
|-----------------------|-----------------------|
|-----17----17----17-19-|-12-12-12-12-----14-14-|
|-----------------------|-----------------------|
|-0-0-15----15----15-17-|-10-10-10-10-0-0-12-12-|
|-0-0-------------------|-------------0-0-------|



        PM|               PM|
|-----------------------|-----------------------|
|-----------------------|-----------------------|
|-14-14-----15-15-15-15-|-----17-17-15-15-14-15-|
|-----------------------|-----------------------|
|-12-12-0-0-13-13-13-13-|-0-0-15-15-13-13-12-13-|
|-------0-0-------------|-0-0-------------------|


       PM|               PM|
|-----------------------|-----------------------|
|-----------------------|-----------------------|
|-14-14-----10-10-10-10-|-----14-15-15----14-15-|
|-----------------------|-----------------------|
|-12-12-0-0--8--8--8--8-|-0-0-12-13-13----12-13-|
|-------0-0-------------|-0-0-------------------|


  
|---------------------|-----------------------|
|---------------------|-----------------------|
|-12--12-12-12-12-10--|-10-10-10-10--8---8--8-|
|---------------------|-----------------------|
|-10--10-10-10-10--8--|--8--8--8--8--6---6--6-|
|---------------------|-----------------------|


|---------------------|-----------------------|
|---------------------|-----------------------|
|-12--12-12-12-12-14--|-14-14-14-14-19--19-19-|
|---------------------|-----------------------|
|-10--10-10-10-10-12--|-12-12-12-12-17--17-17-|
|---------------------|-----------------------|



|---------------------|---------------------|
|---------------------|---------------------|
|--8--8-10--15--14----|-12--12-12-12-12-10--|
|---------------------|---------------------|
|--6--6--8--13--12----|-10--10-10-10-10--8--|
|---------------------|---------------------|


|---------------------|---------------------|
|---------------------|---------------------|
|-19-19-17--17--17-19-|-12--12-12-12-12-14--|
|---------------------|---------------------|
|-17-17-15--15--15-17-|-10--10-10-10-10-12--|
|---------------------|---------------------|

                                
                                       PM-----|
|-----------------------|------------------------|
|-----------------------|------------------------|
|-10-10-10-10--8---8--8-|--8--8--7---------------|
|-----------------------|------------------------|
|--8--8--8--8--6---6--6-|--6--6--5-----0-0--0--0-|
|-----------------------|--------------0-0--0--0-|


|-----------------------|------------------------|
|-----------------------|------------------------|
|-14-14-14-14-10--10-10-|-10-10-14-15-15---14-15-|
|-----------------------|------------------------|
|-12-12-12-12--8---8--8-|--8--8-12-13-13---12-13-|
|-----------------------|------------------------|



|---------------------|-----------------------|---------------------|
|---------------------|-----------------------|---------------------|
|-12--12-12-12-12-10--|-10-10-10-10--8---8--8-|--8--8-10--15--14----|
|---------------------|-----------------------|---------------------|
|-10--10-10-10-10--8--|--8--8--8--8--6---6--6-|--6--6--8--13--12----|
|---------------------|-----------------------|---------------------|


|---------------------|-----------------------|---------------------|
|---------------------|-----------------------|---------------------|
|-12--12-12-12-12-14--|-14-14-14-14-19--19-19-|-19-19-17--17--17-19-|
|---------------------|-----------------------|---------------------|
|-10--10-10-10-10-12--|-12-12-12-12-17--17-17-|-17-17-15--15--15-17-|
|---------------------|-----------------------|---------------------|



                                                             PM-----|
|---------------------|-----------------------|------------------------|
|---------------------|-----------------------|------------------------|
|-12--12-12-12-12-10--|-10-10-10-10--8---8--8-|--8--8--7---------------|
|---------------------|-----------------------|------------------------|
|-10--10-10-10-10--8--|--8--8--8--8--6---6--6-|--6--6--5-----0-0--0--0-|
|---------------------|-----------------------|--------------0-0--0--0-|


|---------------------|-----------------------|------------------------|
|---------------------|-----------------------|------------------------|
|-12--12-12-12-12-14--|-14-14-14-14-10--10-10-|-10-10-14-15-15---14-15-|
|---------------------|-----------------------|------------------------|
|-10--10-10-10-10-12--|-12-12-12-12--8---8--8-|--8--8-12-13-13---12-13-|
|---------------------|-----------------------|------------------------|


 Guitar Break:
|-----------------|------------------|------------------|------------------|
|-----------------|------------------|------------------|------------------|
|-----------------|------------------|------------------|------------------|
|-----------------|------------------|------------------|------------------|
|-----------------|------------------|------------------|------------------|
|-0-0-3-0-0-6-5-6-|-0--0-3-0-0-6-5-6-|-0--0-3-0-0-6-5-6-|-0--0-3-0-0-6-5-6-|


|-----------------|-------------------|-------------------|----------------|
|-----------------|-------------------|-------------------|----------------|
|-----------------|-------------------|-------------------|----------------|
|-0---------------|-(0)---------------|-(0)---------------|-(0)------------|
|-0---------------|-(0)---------------|-(0)---------------|-(0)------------|
|-0---------------|-(0)---------------|-(0)---------------|-(0)------------|


|-----------------|------------------|------------------|------------------|
|-----------------|------------------|------------------|------------------|
|-----------------|------------------|------------------|------------------|
|-----------------|------------------|------------------|------------------|
|-----------------|------------------|------------------|------------------|
|-0-0-3-0-0-6-5-6-|-0--0-3-0-0-6-5-6-|-0--0-3-0-0-6-5-6-|-0--0-3-0-0-6-5-6-|


|-----------------|-------------------|-------------------|----------------|
|-----------------|-------------------|-------------------|----------------|
|-----------------|-------------------|-------------------|----------------|
|-0---------------|-(0)---------------|-(0)---------------|----------------|
|-0---------------|-(0)---------------|-(0)---------------|-12\------------|
|-0---------------|-(0)---------------|-(0)---------------|-12\------------|


 Guitar Break:
                                                        PM------|
|-----------------|-----------------|-----------------|-----------------|
|-----------------|-----------------|-----------------|-----------4-4-4-|
|-----------------|-----------------|-----------------|-----------7-7-7-|
|-----------------|-----------------|-----------------|-----------------|
|-----------------|-----------------|-----------------|-0-0-0-0-0-------|
|-0-0-3-0-0-6-5-6-|-0-0-3-0-0-6-5-6-|-0-0-3-0-0-6-5-6-|-0-0-0-0-0-------|
 
                                                        PM------|

|-----------------|-----------------|-----------------|-----------------|
|-----------------|-----------------|-----------------|-----------4-4-4-|
|-----------------|-----------------|-----------------|-----------7-7-7-|
|-----------------|-----------------|-----------------|-----------------|
|-----------------|-----------------|-----------------|-0-0-0-0-0-------|
|-0-0-3-0-0-6-5-6-|-0-0-3-0-0-6-5-6-|-0-0-3-0-0-6-5-6-|-0-0-0-0-0-------|


                                                    
                                                        PM------|
|-----------------|-----------------|-----------------|-----------------|
|-----------------|-----------------|-----------------|-----------4-4-4-|
|-----------------|-----------------|-----------------|-----------7-7-7-|
|-----------------|-----------------|-----------------|-----------------|
|-----------------|-----------------|-----------------|-0-0-0-0-0-------|
|-0-0-3-0-0-6-5-6-|-0-0-3-0-0-6-5-6-|-0-0-3-0-0-6-5-6-|-0-0-0-0-0-------|
 
                                                        PM------|
|-----------------|-----------------|-----------------|-----------------|
|-----------------|-----------------|-----------------|-----------4-4-4-|
|-----------------|-----------------|-----------------|-----------7-7-7-|
|-----------------|-----------------|-----------------|-----------------|
|-----------------|-----------------|-----------------|-0-0-0-0-0-------|
|-0-0-3-0-0-6-5-6-|-0-0-3-0-0-6-5-6-|-0-0-3-0-0-6-5-6-|-0-0-0-0-0-------|


                                                        PM------|
|-----------------|-----------------|-----------------|-----------------|
|-----------------|-----------------|-----------------|-----------4-4-4-|
|-----------------|-----------------|-----------------|-----------7-7-7-|
|-----------------|-----------------|-----------------|-----------------|
|-----------------|-----------------|-----------------|-0-0-0-0-0-------|
|-0-0-3-0-0-6-5-6-|-0-0-3-0-0-6-5-6-|-0-0-3-0-0-6-5-6-|-0-0-0-0-0-------|

                                                       PM------|
|-----------------|-----------------|-----------------|-----------------|
|-----------------|-----------------|-----------------|-----------4-4-4-|
|-----------------|-----------------|-----------------|-----------7-7-7-|
|-----------------|-----------------|-----------------|-----------------|
|-----------------|-----------------|-----------------|-0-0-0-0-0-------|
|-0-0-3-0-0-6-5-6-|-0-0-3-0-0-6-5-6-|-0-0-3-0-0-6-5-6-|-0-0-0-0-0-------|



|-----------------|-----------------|-----------------|
|-----------------|-----------------|-----------------|
|-----------------|-----------------|-----------------|
|-----------------|-----------------|-----------------|
|-----------------|-----------------|-----------------|
|-0-0-3-0-0-6-5-6-|-0-0-3-0-0-6-5-6-|-0-0-3-0-0-6-5-6-|


|-----------------|-----------------|-----------------|
|-----------------|-----------------|-----------------|
|-----------------|-----------------|-----------------|
|-----------------|-----------------|-----------------|
|-----------------|-----------------|-----------------|
|-0-0-3-0-0-6-5-6-|-0-0-3-0-0-6-5-6-|-0-0-3-0-0-6-5-6-|


 
  PM------------------------------|
|-----------------|-----------------|-------------------------|
|-----------------|-----------------|-------------------------|
|-----------------|-----------------|-------------------------|
|-----------------|-----------------|-------------------------|
|-6-5-4-3-5-4-3-2-|-4-3-2-1-3-2-1-0-|-0-0---0-0---------------|
|-6-5-4-3-5-4-3-2-|-4-3-2-1-3-2-1-0-|-0-0---0-0---------------|



  PM------------------------------|   
|-----------------|-----------------|
|-----------------|-----------------|
|-----------------|-----------------|
|-----------------|-----------------|
|-6-5-4-3-5-4-3-2-|-4-3-2-1-3-2-1-0-|
|-6-5-4-3-5-4-3-2-|-4-3-2-1-3-2-1-0-|



                           Outro/Breakdown:
                            

|-------------------------|---------------|
|-------------------------|---------------|
|-------------------------|---------------|
|-------------------------|---------------|
|-------------------------|-------0-0---0-|
|-------------------------|-------0-0---0-|


|-------------------------|---------------|
|-------------------------|---------------|
|-------------------------|---------------|
|-------------------------|---------------|
|---------0-0---0-0-------|-------0-0---0-|
|---------0-0---0-0-------|-------0-0---0-|



|-----------------------|-------------------------|------------------------|
|-----------------------|-------------------------|------------------------|
|-----------------------|-------------------------|------------------------|
|-----------------------|-------------------------|------------------------|
|-0-------0-0---0-0-----|-----0-0---0-0---0-0---0-|-0-----0-0---0-0--------|
|-0-------0-0---0-0-----|-----0-0---0-0---0-0---0-|-0-----0-0---0-0--------|


|-----------------------|-------------------------|------------------------|
|-----------------------|-------------------------|------------------------|
|-----------------------|-------------------------|------------------------|
|-----------------------|-------------------------|------------------------|
|-0-------0-0---0-0-----|-----0-0---0-0---0-0---0-|-0-----0-0---0-0--------|
|-0-------0-0---0-0-----|-----0-0---0-0---0-0---0-|-0-----0-0---0-0--------|


|-------------------------|-----------------------|------------------------|
|-------------------------|-----------------------|------------------------|
|-------------------------|-----------------------|------------------------|
|-------------------------|-----------------------|------------------------|
|-0-0---0-0-----------0-0-|---0-0---0-0---0-0-----|-0-0---0-0-----0-0---0--|
|-0-0---0-0-----------0-0-|---0-0---0-0---0-0-----|-0-0---0-0-----0-0---0--|



|-------------------------|-----------------------|------------------------|
|-------------------------|-----------------------|------------------------|
|-------------------------|-----------------------|------------------------|
|-------------------------|-----------------------|------------------------|
|-0-0---0-0-----------0-0-|---0-0---0-0---0-0-----|-0-0---0-0-----0-0---0--|
|-0-0---0-0-----------0-0-|---0-0---0-0---0-0-----|-0-0---0-0-----0-0---0--|



|-------------------------|-------------------------|----------------------|
|-------------------------|-------------------------|----------------------|
|-------------------------|-------------------------|----------------------|
|-------------------------|-------------------------|----------------------|
|-0-----------0-0---0-0---|-0-0---0-0-------0-0---0-|-0-------0-0---0------|
|-0-----------0-0---0-0---|-0-0---0-0-------0-0---0-|-0-------0-0---0-0----|


|-------------------------|-------------------------|----------------------|
|-------------------------|-------------------------|----------------------|
|-------------------------|-------------------------|----------------------|
|-------------------------|-------------------------|----------------------|
|-0-----------0-0---0-0---|-0-0---0-0-------0-0---0-|-0-------0-0---0-0----|
|-0-----------0-0---0-0---|-0-0---0-0-------0-0---0-|-0-------0-0---0-0----|


Outro/Guitar Solo:


|-------------------------|------------------------------|
|-------------------------|------------------------------|
|-------------------------|------------------------------|
|-------------------------|------------------------------|
|-----0-0---0-0---0-0---0-|-0--------0-0-----0-0---------|
|-----0-0---0-0---0-0---0-|-0--------0-0-----0-0---------|


                                    T       T       T
|-------------------------|------------------------------|
|-------------------------|---------15p8h11-15p8h11-15p8-|
|-------------------------|------------------------------|
|-------------------------|------------------------------|
|-----0-0---0-0---0-0---0-|------------------------------|
|-----0-0---0-0---0-0---0-|------------------------------|



|----------------------------------|
|----------------------------------|
|----------------------------------|
|----------------------------------|
|--0--0----0--0---------------0-0--|
|--0--0----0--0---------------0-0--|


     T       T       T       T
|----------------------------------|
|-11h15p8-11h15p8-11h15p8-10h15p8--|
|----------------------------------|
|----------------------------------|
|----------------------------------|
|----------------------------------|



|-------------------------------|--------------------------------|
|-------------------------------|--------------------------------|
|-------------------------------|--------------------------------|
|-------------------------------|--------------------------------|
|-----0-0-----0-0----0-0--------|-0--0----0--0---------0--0----0-|
|-----0-0-----0-0----0-0--------|-0--0----0--0---------0--0----0-|


     T       T      T      T        T       T       T       T
|-------------------------------|--------------------------------|
|-10h15p8-10h15p7-8h15p7-8h15p7-|-8h15p7-10h15p7-10h15p7-10h15p7-|
|-------------------------------|--------------------------------|
|-------------------------------|--------------------------------|
|-------------------------------|--------------------------------|
|-------------------------------|--------------------------------|



|----------------------------------|-----------------------------------|
|----------------------------------|-----------------------------------|
|----------------------------------|-----------------------------------|
|----------------------------------|-----------------------------------|
|--0---------------0--0----0--0----|-0--0----0--0---------0--0----0----|
|--0---------------0--0----0--0----|-0--0----0--0---------0--0----0----|

     T       T       T       T         T       T       T       T
|----------------------------------|-----------------------------------|
|-10h15p7-10h16p7-10h16p7-10h16p10-|-7h15p7-10h15p7-10h15p7-10h15p8----|
|----------------------------------|-----------------------------------|
|----------------------------------|-----------------------------------|
|----------------------------------|-----------------------------------|
|----------------------------------|-----------------------------------|



|---------------------------------|
|---------------------------------|
|---------------------------------|
|---------------------------------|
|--0----------0-0-----0-0---------|
|--0----------0-0-----0-0---------|


     T       T       T       T
|---------------------------------|
|-11h15p8-11h15p8-11h15p8-11h15p8-|
|---------------------------------|
|---------------------------------|
|---------------------------------|
|---------------------------------|



|---------------------------------|--------------------------------|
|---------------------------------|--------------------------------|
|---------------------------------|--------------------------------|
|---------------------------------|--------------------------------|
|-------0--0-----0-0-----0-0----0-|-0---------0-0----0--0----------|
|-------0--0-----0-0-----0-0----0-|-0---------0-0----0--0----------|



     T       T       T       T        T      T    T       T
|---------------------------------|--------------------------------|
|-11h15p8-10h15p10-8h15p10-8h15p7-|-8h15p7-8h15p7-15p7h10-15p7h10--|
|---------------------------------|--------------------------------|
|---------------------------------|--------------------------------|
|---------------------------------|--------------------------------|
|---------------------------------|--------------------------------|


|---------------------------------|
|---------------------------------|
|---------------------------------|
|---------------------------------|
|--0-0-----0-0---------------0--0-|
|--0-0-----0-0---------------0--0-|


  T       T       T       T
|---------------------------------|
|-15p7h10-15p7h10-15p7h10-16p7h10-|
|---------------------------------|
|---------------------------------|
|---------------------------------|
|---------------------------------|


|---------------------------------|------------------|
|---------------------------------|------------------|
|---------------------------------|------------------|
|---------------------------------|------------------|
|----0--0----0--0----0--0---------|-0-0---0-0--------|
|----0--0----0--0----0--0---------|-0-0---0-0--------|

  T       T       T       T
|---------------------------------|------------------|
|-16p7h10-16p7h10-15p7h10-15p7h10-|------------------|
|---------------------------------|------------------|
|---------------------------------|------------------|
|---------------------------------|-0-0---0-0--------|
|---------------------------------|-0-0---0-0--------|





Comments


Popular Unearth tabs & chords
My Desire Bass Tabs
Aries Tabs
Big Bear And The Hour Of Chaos Tabs
Giles Tabs
Internal War Tabs
Lie To Purify Tabs
Monition Tabs
Only The PeopleSolo Tabs
Sanctity Of Brothers Intro Tabs
Zombie Autopilot Tabs


Song lyrics



↑ Back to top | Tablatures and chords are parodies/interpretations of the original songs. You may use it for private study, scholarship, research or language learning purposes only
© 2014 AZChords.com Contact us | Privacy policy | DMCA | Add/correct tabs | Request tabs | Top 50 tabs