>
 >
Endless

Endless Guitar Tabs

Unearth - Endless chords, tabs, tablatures, lyrics

Guitar lessons | Add/correct | Request | Top 50 tabs Artists:  A B C D E F G H I J K L M N O P Q R S T U V W X Y Z 0-9

Endless Guitar Tabs – Unearth

CD, Sheet music, Poster

Do you like Endless? Share with your friends now
Bass TabsTabsTabs v2
I DON’T TAKE CREDIT FOR THIS I JUST CHANGED IT 7-STRING TUNING
The harmonics are probably off.

Band: Unearth
Tuning: B E A D G B E (Standard 7-string)

Guitar 1, left pan
Guitar 2, right pan
Guitar 3, left and right pan
Guitar 4, center pan

Intro/Verse 1
Guitar 1                                            x4
E| ------------------------------------------------ ||
B| ------------------------------------------------ ||
G| ------------------------------------------------ ||
D|.--------------------------------------------4---.||
A|.------------------5554422--------------------5--.||
E| ------777---775577------------777---33773355---- ||
B| --0000---000--------------0000---000------------ ||
PM   ****   ***              ****   ***             

Guitar 2                                            x4
E| ------------------------------------------------ ||
B| ------------------------------------------------ ||
G| ------------------------------------------------ ||
D|.------------------------------------------------.||
A|.------------------5554422-------------------54--.||
E| ------777---775577------------777---33773355---- ||
B| --0000---000--------------0000---000------------ ||
PM   ****   ***              ****   ***

Verse 2
Guitar 1
  ____________________________________________
 |1,2		      				    
E| ------------------------------------------ ||
B| ------------------------------------------ ||
G| ------------------------------------------ ||
D|.------------------------------------------.||
A|.--52525252-40404040----------4040-4h5h7---.||
E| --------------------73737373-------------- ||
B| ------------------------------------------ ||
PM   ******** ******** ******** ****

Guitar 2
  ____________________________________________
 |1,2	      					    
E| ------------------------------------------ ||
B| ------------------------------------------ ||
G| ------------------------------------------ ||
D|.------------------------------------------.||
A|.--95959595-74747474-52525252-7474-7h9h10--.||
E| ------------------------------------------ ||
B| ------------------------------------------ ||
PM   ******** ******** ******** ****

Guitar 1
 ____________________________________________________
|3   								     
E|----------------------------------------------------|
B|----------------------------------------------------|
G|----------------------------------------------------|
D|----------------------------------------------------|
A|----------------------------------------------------|
E|-10-777-10-777-9-555-9-555-7-333-7-333-9-555-9h10h12|
B|----------------------------------------------------|
PM    ***    ***   ***   ***   ***   ***   ***

Guitar 2
 ____________________________________________________
|3           				                 
E|-------------------------------------------------------|
B|-------------------------------------------------------|
G|-------------------------------------------------------|
D|-------------------------------------------------------|
A|-9--------9--------7-----7-----5-----5-----7-----7h9h10|
E|---101010---101010---999---999---777---777---999-------|
B|-------------------------------------------------------|
PM   ******   ******   ***   ***   ***   ***   ***

Fill 1                  Fill 2
Guitar 1
 ______________________
|4                                                     x4
E|----------------------|| ---------------------------- |
B|----------------------|| -----------------------NH--- ||
G|----------------------|| -----------------------(7)-- ||(4th time only)
D|---------4-------7-9--||.----------------------------.||
A|---457754-755754-7-9--||.--22-22-22-22--22-22-22-22--.||
E|--7--------------5-7--|| --22-22-22-22--22-22-22-22-- ||
B|----------------------|| --00-00-00-00--00-00-00-00-- ||
PM                           ** ** ** **  ** ** ** **

Guitar 2
 ______________________
|4                                                     x4
E|----------------------|| ---------------------------- |
B|----------------------|| -----------------------NH--- ||
G|----------------------|| -----------------------(7)-- ||(4th time only)
D|-----------------7-9--||.----------------------------.||
A|--2--------------7-9--||.--22-22-22-22--22-22-22-22--.||
E|--2--------------5-7--|| --22-22-22-22--22-22-22-22-- ||
B|--0-------------------|| --00-00-00-00--00-00-00-00-- ||
PM                           ** ** ** **  ** ** ** **

Guitar 3, left pan					       x4
E|----------------------|| -----------------------NH--- ||
B|----------------------|| --10~~~~~~~~~~~~~~~~~~~~(7)~ ||(4th time only)
G|----------------------||.--12b~~~~~~~~~~~~~~~~~~~~~~~.||
D|----------------------||.----------------------------.||
A|----------------------|| ---------------------------- ||
E|----------------------|| ---------------------------- ||
B|----------------------|| ---------------------------- ||

Guitar 3, right pan					       x4
E|----------------------|| ---------------------------- ||
B|----------------------|| ----10~~~~~~~~~~~~~~~~~(7)~~ ||(4th time only)
G|----------------------||.----12b~~~~~~~~~~~~~~~~~~~~~.||
D|----------------------||.----------------------------.||
A|----------------------|| ---------------------------- ||
E|----------------------|| ---------------------------- ||
B|----------------------|| ---------------------------- ||

Breakdown
Guitars 1 and 2                 x4                              x4
E| ---------------------------- || ---------------------------- ||
B| ---------------------------- || ---------------------------- ||
G| ---------------------------- || ---------------------------- ||
D|.----------------------------.||.----------------------------.||
A|.--22-22-22-22--22-22-22-22--.||.--22-22-22-22--22-22-22-22--.||
E| --22-22-22-22--22-22-22-22-- || --22-22-22-22--22-22-22-22-- ||
B| --00-00-00-00--00-00-00-00-- || --00-00-00-00--00-00-00-00-- ||
PM   ** ** ** **  ** ** ** **        ** ** ** **  ** ** ** **

Guitar 4                                                        x4
E|------------------------------- || ---------------------------- ||
B|--------------------------------|| ---------------------------- ||
G|--------------------------------|| ---------------------------- ||
D|--------------------------------||.----------------------------.||
A|--------------------------14\\--||.--------9----5--9--12-11-7--.||
E|--------------------------14\\--|| --------7----3--7--10--9-5-- ||
B|--------------------------12\\--|| ---------------------------- ||

Interlude 1
Guitar 1
E| ------------------------------------------------------------ ||
B| ------------------------------------------------------------ ||
G| ------------------------------------------------------------ ||
D|.------------------------------------------------------------.||
A|.--9---7-9-10-9-7--9---7-9-10-9-7—-9---7-9-10-9-7-5----7-----.||
E| --7---5-7--8-7-5--7---5-7--8-7-5—-7---5-7--8-7-5-3----5-----.||
B| --------------------------------------------------------(00).||(1st time only)
PM                                                          **

Guitar 2
E| ------------------------------------------------------------ ||
B| ------------------------------------------------------------ ||
G| ------------------------------------------------------------ ||
D|.------------------------------------------------------------.||
A|.--9---7-9-----7--14----16-------9---7-9-----7-5-16-14-------.||
E| --7---5-7-----5--12----14-------7---5-7-----5-3-14-12------- ||
B| ----------------------------00------------------------(00)-- ||(1st time only)
PM                             **                         **

Interlude 2
Guitar 1
E| ------|--------------------------------------------------|
B| ------|--------------------------------------------------|
G| ------|--9-9-9-9xx11-11-11-11xx12-12-12-12xx14-12-11/12--|
D|.------|--x-x-x-x---x--x--x--x---x--x--x--x---x--x--x--x--|
A|.------|--7-7-7-7xx-9--9--9--9xx10-10-10-10xx12-10—-9/10--|
E| ------|--------------------------------------------------|
B| --x\\-|--------------------------------------------------|

Guitar 2
E| ------|--------------------------------------------------|
B| ------|--------------------------------------------------|
G| ------|--9-9-9-9xx11-11-11-11xx16-16-16-16xx14-14-14/16--|
D|.------|--x-x-x-x--x--x--x--x---x--x--x--x---x--x--x--x---|
A|.------|--7-7-7-7xx9--9--9--9-xx14-14-14-14xx12-12-12/14--|
E| ------|--------------------------------------------------|
B| --x\\-|--------------------------------------------------|

Guitar 1
E|----------------------------------------------------- ||
B|----------------------------------------------------- ||
G|--9-9-9-9xx11-11-11-11xx12-12-12-12xx14-12-11/12\\12- ||
D|--x-x-x-x--x--x--x--x---x--x--x--x---x--x--x--x--x---.||
A|--7-7-7-7xx9--9--9--9-xx10-10-10-10xx12-10-9-/10-\\9-.||
E|----------------------------------------------------- ||
B|----------------------------------------------------- ||

Guitar 2
E|----------------------------------------------------- ||
B|----------------------------------------------------- ||
G|--9-9-9-9xx11-11-11-11xx7--7--7--7-xx11/12-12-12-12-- ||
D|--x-x-x-x--x--x--x--x---x--x--x--x---x--x--x--x--x---.||
A|--7-7-7-7xx9--9--9--9-xx5--5--5--5-xx9-/10-10-10-10--.||
E|----------------------------------------------------- ||
B|----------------------------------------------------- ||

Interlude 3
Guitar 1
E| ------------------------------------------------- ||
B| ------------------------------------------------- ||
G| ------------------------------------------------- ||
D|.--14--12--10---12-17-16--14---12--10---12--------.||
A|.--x----x----x---x--x--x---x----x----x---x--5555--.||
E| --12--10---8---10-15-14--12---10---8---10--5555-- ||
B| -------------------------------------------3333-- ||
PM                                            ****

Guitar 2
E| ------------------------------------------------- ||
B| ------------------------------------------------- ||
G| ------------------------------------------------- ||
D|.-------------------------------------------------.||
A|.--7----5----3---5---------7----5----3---5--5555--.||
E| --7----5----3---5---------7----5----3---5--5555-- ||
B| --5----3----1---3---------5----3----1---3--3333-- ||
PM                                            ****

Interlude 4
Guitar 1
E|---------------------------------------------------------------------------|
B|---------------------------------------------------------------------------|
G|---------------------------------------------------------------------------|
D|---------------------------------------------------------------------------|
A|---------------------------------------------------------------------------|
E|---------------------------------------------------------------------------|
B|--00300656-00300656-00300656-00300656-00300656-00300656-00300656-00300656--|

Guitar 2
E|---------------------------------------------------------------------------|
B|---------------------------------------------------------------------------|
G|---------------------------------------------------------------------------|
D|---------------------------------------------------------------------------|
A|--2~~~~~~~~~~~~~~~~~~~~~~~~~~~~~~~~~~~~~~~~~~~~~~~~~~~~~-------------------|
E|--2~~~~~~~~~~~~~~~~~~~~~~~~~~~~~~~~~~~~~~~~~~~~~~~~~~~~~-------------------|
B|--O~~~~~~~~~~~~~~~~~~~~~~~~~~~~~~~~~~~~~~~~~~~~~~~~~~~~~x//////////////////|

Guitars 1 and 2
  __________________________________________
 |1,2,3                                     |
E| --------------------------------------- ||
B| --------------------------------------- ||
G| ----------------------------------555-- ||
D|.---------------------------------------.||
A|.---------------------------------------.||
E| --------------------------------------- ||
B| --00300656-00300656-00300656-00000----- ||
PM                              *****

Guitars 1 and 2
 _________________________________________________
|4                                               |
E|-----------------------------------------------|
B|-----------------------------------------------|
G|-----------------------------------------------|
D|-----------------------------------------------|
A|-----------------------------------------------|
E|-----------------------------------------------|
B|--00300656-00300656-00300656-6543543243213210--|
PM                             ****************

Ending 1
Guitars 1 and 2
E|-------------------------|
B|---------------------7---|
G|-------------------(NH)--|
D|-------------------------|
A|--22-22----22-22---------|
E|--22-22----22-22---------|
B|--00-00----00-00---------|
PM  ** **    ** **

Ending 2
Guitars 1 and 2                 x4
E| ---------------------------- ||
B| ---------------------------- ||
G| ---------------------------- ||
D|.----------------------------.||
A|.--22-22-22-22--22-22-22-22--.||
E| --22-22-22-22--22-22-22-22-- ||
B| --00-00-00-00--00-00-00-00-- ||
PM   ** ** ** **  ** ** ** **

Guitar 4                 4th time
E|--------------------------------|
B|--------------------------------|
G|--------------------------------|
D|--------------------------------|
A|--------------------------14\\--|
E|--------------------------14\\--|
B|--------------------------12\\--|

Guitars 1 and 2
E| -------------------------------------------------------------------|
B| -------------------------------------------------------------------|
G| -------------------------------------------------------------------|
D|.-------------------------------------------------------------------|
A|.--2--2----2--2----2--2----2--2----2--2----2--2----2--2----2--2-----|
E| --2--2----2--2----2--2----2--2----2--2----2--2----2--2----2--2-----|
B| --0--0----0--0----0--0----0--0----0--0----0--0----0--0----0--0-----|
PM   *  *    *  *    *  *    *  *    *  *    *  *    *  *    *  *

Guitar 4
E| ---------------------------------------------------------------------------|
B| ---t--ph----t--ph----t--ph----t--ph----t--ph----t--ph----t--ph----t--ph----|
G| --17131013-17131013-17131013-17131013-18131013-18131013-17131013-17131013--|
D|.---------------------------------------------------------------------------|
A|.---------------------------------------------------------------------------|
E| ---------------------------------------------------------------------------|
B| ---------------------------------------------------------------------------|

Guitars 1 and 2
E| ------------------------------------------------------------------- ||
B| ------------------------------------------------------------------- ||
G| ------------------------------------------------------------------- ||
D|.-------------------------------------------------------------------.||
A|.--2--2----2--2----2--2----2--2----2--2----2--2----2--2----2--2-----.||
E| --2--2----2--2----2--2----2--2----2--2----2--2----2--2----2--2----- ||
B| --0--0----0--0----0--0----0--0----0--0----0--0----0--0----0--0----- ||
PM   *  *    *  *    *  *    *  *    *  *    *  *    *  *    *  *


Guitar 4
E|------------------------------------------------------------------- ||
B|---t--ph---t--ph---t--ph---t--ph---t--ph---t--ph---t--ph--t--ph---- ||
G|--1712912-1712912-1712912-1712912-1812712-1812912-1712912-1712912-- ||
D|-------------------------------------------------------------------.||
A|-------------------------------------------------------------------.||
E|------------------------------------------------------------------- ||
B|------------------------------------------------------------------- ||

Guitars 1 and 2
E|---------||
B|---------||
G|---------||
D|---------||
A|--22-22--||
E|--22-22--||
B|--00-00--||
PM  ** **





Comments


Popular Unearth tabs & chords
My Heart Bleeds No Longer 3 Bass Tabs
My Will Be Done Bass Tabs
Black Hearts Now Reign Tabs
Bloodlust Of The Human Condition 1 Tabs
Failure Tabs
Giles Tabs
Grave Of Opportunity Intro Tabs
My Heart Bleeds No Longer Tabs
Sanctity Of Brothers 1 Tabs
Stronghold Tabs


Song lyrics



↑ Back to top | Tablatures and chords are parodies/interpretations of the original songs. You may use it for private study, scholarship, research or language learning purposes only
© 2014 AZChords.com Contact us | Privacy policy | DMCA | Add/correct tabs | Request tabs | Top 50 tabs