>
 >
Crow Killer

Crow Killer Guitar Tabs

Unearth - Crow Killer chords, tabs, tablatures, lyrics

Guitar lessons | Add/correct | Request | Top 50 tabs Artists:  A B C D E F G H I J K L M N O P Q R S T U V W X Y Z 0-9

Crow Killer Guitar Tabs – Unearth

CD, Sheet music, Poster

Do you like Crow Killer? Share with your friends now
Tabs
-------------------------------------------------------------------------------
-------------------------------------------------------------------------------

Tuning:drop B

Its my first tab but im pretty sure of whats next.Viva UNEARTH!!:)

lead guitar
rhythm guitar
3rd guitar


intro

lead guitar(1)
|---------------------------3 times|--------------------------------|
|----------------------------------|--------------------------------|
|--10h14p10----------10h14p10------|--14h15p14s12h14p12s10h12p10s9--|
|-----------12----12---------------|--------------------------------|
|--------------12------------------|--------------------------------|
|----------------------------------|--------------------------------|
rhythm guitar(2)
|----------------------------------|--------------------------------|
|----------------------------------|--------------------------------|
|----------------------------------|--------------------------------|
|----------------------------------|--------------------------------|
|-------5-----5---------5-----5----|---------5-----5----7-----------|
|-0-0-0----0-----0-0-0-----0-------|--0-0-0-----0-------7-----------|
  . . .    .     . . .     .          . . .     .
(1)
|----------------------------------|--------------------------------|
|----------------------------------|--------------------------------|
|--12p9----------9h12p9------------|-7/9--10--14--12--10------------|
|-------11----11--------11----11---|--------------------------------|
|----------10--------------12------|--------------------------------|
|----------------------------------|--------------------------------|
(2)
|----------------------------------|--------------------------------|
|----------------------------------|--------------------------------|
|----------------------------------|--------------------------------|
|----------------------------------|-----------------10-----3-------|
|-------8----8---------7-----7-----|---------7-------10-----3-------|
|-8-8-8----8----8-8-8-----8--------|--8-8-8-----8-8--10-----3-------|
  . . .    .    . . .     .           . . .     . .
(1)
|---------------------------3 times|--------------------------------|
|----------------------------------|--------------------------------|
|--10h14p10----------10h14p10------|--14h15p14s12h14p12s10h12p10s9--|
|-----------12----12---------------|--------------------------------|
|--------------12------------------|--------------------------------|
|----------------------------------|--------------------------------|
(2)
|----------------------------------|--------------------------------|
|----------------------------------|--------------------------------|
|----------------------------------|--------------------------------|
|----------------------------------|--------------------------------|
|-------5-----5---------5-----5----|---------5-----5----7-----------|
|-0-0-0----0-----0-0-0-----0-------|--0-0-0-----0-------7-----------|
  . . .    .     . . .     .          . . .     .
(1)
|----------------------------------|--------------------------------|
|----------------------------------|--------------------------------|
|--12p9----------9h12p9------------|-14h15p14s12h14p12s10h12p10s9---|
|-------11----11--------11----11---|--------------------------------|
|----------10--------------12------|--------------------------------|
|----------------------------------|--------------------------------|
(2)
|----------------------------------|--------------------------------|
|----------------------------------|--------------------------------|
|----------------------------------|--------------------------------|
|----------------------------------|-----------------10-----3-------|
|-------8----8---------7-----7-----|---------7-------10-----3-------|
|-8-8-8----8----8-8-8-----8--------|--8-8-8-----8-8--10-----3-------|
  . . .    .    . . .     .           . . .     . .

Chorus
(1)
|--17p13------13h17p13----------------------------15-----15h17-----|
|-------15--15--------15--15------------17p14-17-----17------------|
|---------14------------14----12h14h15-----------------------------|
|------------------------------------------------------------------|
|------------------------------------------------------------------|
|------------------------------------------------------------------|
(2)
|------------------------------------------------------------------|
|------------------------------------------------------------------|
|------------------------------------------------------------------|
|--0-------------8-----------------3-----------------7-------------|
|--0-------------8-----------------3-----------------7-------------|
|--0-------------8-----------------3-----------------7-------------|
(1)
|--17p13------13h17p13---------------------------------------------|
|-------15--15--------15-------------------------------------------|
|---------14------------14---12-14-12-10-12-10-9-10-9-7-9-7--------|
|------------------------------------------------------------------|
|------------------------------------------------------------------|
|------------------------------------------------------------------|
(2)
|------------------------------------------------------------------|
|------------------------------------------------------------------|
|------------------------------------------------------------------|
|--0--------------10---------14-15-14-12-14-12-10-12-10-9-10-9-----|
|--0--------------10-----------------------------------------------|
|--0--------------10-----------------------------------------------|
(1)(2)
|------------|
|------------|
|------------|
|--0---------|
|--0---------|
|--0---------|
   .
Main riff(1,2)after 2 times,lead guitar begins the harmonic part of this riff
|----------------------------------|--------------------------------|
|----------------------------------|--------------------------------|
|----------------------------------|--------------------------------|
|----------------------------------|--------------------------------|
|-------5-----5---------5-----5----|---------5-----5----7-----------|
|-0-0-0----0-----0-0-0-----0-------|--0-0-0-----0-------7-----------|
  . . .    .     . . .     .          . . .     .
|
|----------------------------------|--------------------------------|
|----------------------------------|--------------------------------|
|----------------------------------|--------------------------------|
|----------------------------------|-----------------10-----3-------|
|-------8----8---------7-----7-----|---------7-------10-----3-------|
|-8-8-8----8----8-8-8-----8--------|--8-8-8-----8-8--10-----3-------|
  . . .    .    . . .     .           . . .     . .
|
|----------------------------------|--------------------------------|
|----------------------------------|--------------------------------|
|----------------------------------|--------------------------------|
|----------------------------------|--------------------------------|
|-------5-----5---------5-----5----|---------5-----5----7-----------|
|-0-0-0----0-----0-0-0-----0-------|--0-0-0-----0-------7-----------|
  . . .    .     . . .     .          . . .     .
|
|----------------------------------|--------------------------------|
|----------------------------------|--------------------------------|
|----------------------------------|--------------------------------|
|----------------------------------|--------------------------------|
|-------8----8---------8-----8-----|---------8-------10h12p10-------|
|-8-8-8----8----8-8-8-----8--------|--8-8-8-----8-8----------8h10p8-|
  . . .    .    . . .     .           . . .     . . 

|harmonic part
|----------------------------------|--------------------------------|
|----------------------------------|--------------------------------|
|----------------------------------|--------------------------------|
|-------3-----3---------3-----3----|---------3-----3----------------|
|----------------------------------|--------------------7-----------|
|-0-0-0----0-----0-0-0-----0-------|--0-0-0-----0-------7-----------|
  . . .    .     . . .     .          . . .     .
|
|----------------------------------|--------------------------------|
|----------------------------------|--------------------------------|
|----------------------------------|--------------------------------|
|-------7----7---------5-----5-----|---------5-------10-----3-------|
|----------------------------------|-----------------10-----3-------|
|-8-8-8----8----8-8-8-----8--------|--8-8-8-----8-8--10-----3-------|
  . . .    .    . . .     .           . . .     . .
Chorus
(1)
|--17p13------13h17p13----------------------------15-----15h17-----|
|-------15--15--------15--15------------17p14-17-----17------------|
|---------14------------14----12h14h15-----------------------------|
|------------------------------------------------------------------|
|------------------------------------------------------------------|
|------------------------------------------------------------------|
(2)
|------------------------------------------------------------------|
|------------------------------------------------------------------|
|------------------------------------------------------------------|
|--0-------------8-----------------3-----------------7-------------|
|--0-------------8-----------------3-----------------7-------------|
|--0-------------8-----------------3-----------------7-------------|
(1)
|--17p13------13h17p13---------------------------------------------|
|-------15--15--------15-------------------------------------------|
|---------14------------14---12-14-12-10-12-10-9-10-9-7-9-7--------|
|------------------------------------------------------------------|
|------------------------------------------------------------------|
|------------------------------------------------------------------|
(2)
|------------------------------------------------------------------|
|------------------------------------------------------------------|
|------------------------------------------------------------------|
|--0--------------10---------14-15-14-12-14-12-10-12-10-9-10-9-----|
|--0--------------10-----------------------------------------------|
|--0--------------10-----------------------------------------------|


|------------------------------|------------|
|------------------------------|------------|
|------------------------------|------------|
|--0---------------------------|------------|
|--0---------------------------|---0--------|
|--0---------------------------|---0--------|
                                   .

Breakdown(4x)
|-----------------------------------------------------------------------|
|-----------------------------------------------------------------------|
|-----------------------------------------------------------------------|
|---0------------------------------0-------------------------------7----|
|---0------------------------------0--------------------8p7----------5--|
|---0---00--00--0--000000--00-00---0---0--00--0-000000-0------10-8------|
        ..  ..  .  ......  .. ..       .  ..  . ...... .    

after 2 of breakdown ,one of the two guitars plays this for a while
|----------------------------------------------------------------------------------|
|----------------------------------------------------------------------------------|
|----------------------------------------------------------------------------------|
|-12-12-12-12-12-12-12-12-12-12-12-12-12-12-12-12-12-12-12-12-12-12-12-12-12-12-12-|
|----------------------------------------------------------------------------------|
|----------------------------------------------------------------------------------|

|--------------------------------------------|
|--------------------------------------------|
|--------------------------------------------|
|--0-----------------------------------------|
|--0--------/pick slide----------------------|
|--0-----------------------------------------|

Solo (during the solo the other guitar play the main riff)
(1)
|----------13h17p13------13h1713-----------------13h17p13------13h17p13--------|
|--------15--------15--15-------15-------------15--------15--15--------15------|
|------14------------14-----------14---------14------------14------------14----|
|----15-----------------------------15-----15------------------------------15--|
|--17---------------------------------17-17----------------------------------17|
|------------------------------------------------------------------------------|
(1)
|---20-18-17-17h18p17/15h17p15-13h15p13-12-----------------------|
|------------------------------------------13-10-----------------|
|----------------------------------------------------------------|
|----------------------------------------------------------------|
|----------------------------------------------------------------|
|----------------------------------------------------------------|
*fast picking here
|-------------------------------------------------------------------|
|--15/17--17-18-17-15-17-15--15-------------------------------------|
|--------------------------17---17-15p14h15p-12-14-12--12-----------|
|----------------------------------------------------15--15-14------|
|-------------------------------------------------------------15-12-|
|-------------------------------------------------------------------|
taping
|-------------------------------------------------------------------|
|-22p10h17p10h15p10h17p10h18p10h20p10h2010h17p10h18p10h20p10h22-----|
|-------------------------------------------------------------------|
|-------------------------------------------------------------------|
|-------------------------------------------------------------------|
|-------------------------------------------------------------------|
(1)
|-----------------------------------------------------------------|
|-----------------------------------------------------------------|
|-------------------------------------------17b-17-15-17----------|
|--12---12-14-15-14---14-15-17-15--15-17-19-----------------------|
|-----------------------------------------------------------------|
|-----------------------------------------------------------------|
(2)
|-----------------------------------------------------------------|
|-------------------------------------------15b-13-11-13----------|
|--10---10-12-14-12---12-14-15-14--14-15-17-----------------------|
|-----------------------------------------------------------------|
|-----------------------------------------------------------------|
|-----------------------------------------------------------------|
(3)
|-----------------------------------------------------------------------|
|-----------------------------------------------------------------------|
|-----------------------------------------------------------------------|
|-----------------------------------------------------------------8-----|
|------------------12--------------------10-------------10--------8--10-|
|12-12-12-12-12-12-12--10-10-10-10-10-10-10--9-9-9-9-9-9-9--8-8-8-8--10-|
  .  .  .  .  .  .      .  .  .  . .  .      . . . . . .    . . .

(1)
|------------17h2217---------------------------------------------------|
|----------18-------18-------------------------------------------------|
|--------19-----------19-------------------17h19---22-21-19-21-19-17-19|
|------19---------------19------------17h19----------------------------|
|----17-------------------17--17h19h20---------------------------------|
|--12------------------------------------------------------------------|
(2)
|------------------------------------------------------------------|
|------------------------------------------------------------------|
|------------------------------------------------------------------|
|------------------------------------------------------------------|
|------------0---------------2---------------3----------5/---------|
|0-0-0-0-0-0-0---2-2-2-2-2-2-2---3-3-3-3-3-3-3----5-5-5-5/---------|
 . . . . . .     . . . . . .     . . . . . .      . . .

Chorus
(1)
|--17p13------13h17p13----------------------------15-----15h17-----|
|-------15--15--------15--15------------17p14-17-----17------------|
|---------14------------14----12h14h15-----------------------------|
|------------------------------------------------------------------|
|------------------------------------------------------------------|
|------------------------------------------------------------------|
(2)
|------------------------------------------------------------------|
|------------------------------------------------------------------|
|------------------------------------------------------------------|
|--0-------------8-----------------3-----------------7-------------|
|--0-------------8-----------------3-----------------7-------------|
|--0-------------8-----------------3-----------------7-------------|
(1)
|--17p13------13h17p13---------------------------------------------|
|-------15--15--------15-------------------------------------------|
|---------14------------14---12-14-12-10-12-10-9-10-9-7-9-7--------|
|------------------------------------------------------------------|
|------------------------------------------------------------------|
|------------------------------------------------------------------|
(2)
|------------------------------------------------------------------|
|------------------------------------------------------------------|
|------------------------------------------------------------------|
|--0--------------10---------14-15-14-12-14-12-10-12-10-9-10-9-----|
|--0--------------10-----------------------------------------------|
|--0--------------10-----------------------------------------------|
(1,2)
|----------------------------------|
|----------------------------------|
|----------------------------------|
|--0-------------------------------|
|--0-------------------------------|
|--0-------------------------------|

Outro
(1)
|-----------------------------------------------------------------|
|-----------------------------------------------------------------|
|--------------14--------15h17-15-14-15-14-12-14-12-10-12-10-9----|
|--12--12-14-15--14-15-17-----------------------------------------|
|-----------------------------------------------------------------|
|-----------------------------------------------------------------|
       .  .  .   .  .  .
(2)
|--------------------------|--------------------------------------|
|--------------------------|--------------------------------------|
|--------------------------|--------------------------------------|
|--------------------------|--------------------------------------|
|--------------------------|-12-------10--------8---------7-------|
|--------------------------|-12-------10--------8---------7-------|
(1)
|--------------------------------------------------------------------------------------------------|
|--------------------------------------------------------------------------------------------------|
|--------------14----------17p15p14h15p14p12h14p12p10h12p10------19p17p15h17p15p14h15p14p12h14p12--|
|--12--12-14-15--14-15-17-----------------------------------17-19----------------------------------|
|--------------------------------------------------------------------------------------------------|
|--------------------------------------------------------------------------------------------------|
       .  .  .   .  .  .                                    .  .
(2)
|--------------------------|------------------------------------|
|--------------------------|------------------------------------|
|--------------------------|------------------------------------|
|--------------------------|------------------------------------|
|--------------------------|-8-------3--------10--------7-------|
|--------------------------|-8-------3--------10--------7-------|





Comments


Popular Unearth tabs & chords
Aries Tabs
Glorious Nightmare Tabs
Grave Of Opportunity Intro Tabs
Lie To Purify Tabs
One Step Away 1 Tabs
Only The People Tabs
Ruination Of The Lost Tabs
Sanctity Of Brothers Intro Tabs
Stronghold Tabs
The Great Dividers 1 Tabs


Song lyrics



↑ Back to top | Tablatures and chords are parodies/interpretations of the original songs. You may use it for private study, scholarship, research or language learning purposes only
© 2014 AZChords.com Contact us | Privacy policy | DMCA | Add/correct tabs | Request tabs | Top 50 tabs