» » »

Big Bear And The Hour Of Chaos Tabs (ver.2)

Artists:  A B C D E F G H I J K L M N O P Q R S T U V W X Y Z # 

Big Bear And The Hour Of Chaos Tabs (ver.2)

Unearth
Rating:
2/5 (1 vote)

Hard to play? Try these video lessons and learn fast.
                III:In The Eyes of Fire´s last cool instrumental song.

Tuning: B F# B E G# C#

RIFF1
Guitar 1
|-----------------------------------------------------|
|-----------------------------------------------------|
|--------3~----5~-------------------------------------|
|--0~----3~----5~----0~-------3---3-------3h5h3-------| x4
|--0~----1~----3~----0~----11---1---1--33-------3-----|
|--0~----------------0~----..----------..-------------|

Guitar2
|-----------------------------------------------------|
|----------------------------1---1-------3---3--------|
|-----------------------------------------------------|
|-----------------------------------------------------|
|--5~-7-5-7-8-7-5h7p5p3---11---1---1--33---3---3------|
|-----------------------------------------------------|
                                                        x4
|-----------------------------------------------------|
|-----------------------------------------------------|
|-----------------------------------------------------|
|----------------------------3---3-------3h5h3--------|
|--5~-7-5-7-8-7-5h7p5p3---11---1---1--33-------3------|
|-------------------------..----------..--------------|

Guitar3 (The 2 last times of the riff 1)
|-----------------------------------------------------|
|-----------------------------------------------------|
|--7~----10~-----9~-----7~----10~-----12~-------------|
|--x------x------x------x------x-------x--------------|
|--5~-----8~-----7~-----5~-----8~-----10~-------------|
|-----------------------------------------------------|

RIFF2
|-(clean bright effect)---------------------------------|
|-------------------------------------------------------|  (These aren´t 
|-10~--10~--10~--------------10~--10~---x\3-3-33--------|   really slides
|--x----x----x----------------x----x----x\3-3-33/3-3-3--|   but make it
|--8~---8~---8~--3h5-3h5-3h5--8~---8~---x\1-1-11/3-3-3--|   clearer)
|--*----*----*----------------*----*-------------3-3-3--|
                                                
|-------------------------------------------------------|
|----(very smooth)--------------------------------------|
|-10~10101010-10~10101010-10~10101010-------------------|
|--x--x-x-x-x--x--x-x-x-x--x--x-x-x-x-------------------|
|--8~-8-8-8-8--8~-8-8-8-8--8~-8-8-8-8--3h5-3h5-3h5------|
|--*-----------*-----------*----------------------------|

|-------------------------------------------------------|
|----(very smooth)--------------------------------------|
|-10~10101010-10~10101010----3-3-3-33-------------------|
|--x--x-x-x-x--x--x-x-x-x----3-3-3-33/3-3-3-------------|
|--8~-8-8-8-8--8~-8-8-8-8----1-1-1-11/3-3-3-------------|
|--*-----------*----------------------3-3-3-------------|
                            
Riff1
Guitar 1
|-----------------------------------------------------|
|-----------------------------------------------------|
|--------3~----5~-------------------------------------|
|--0~----3~----5~----0~-------3---3-------3h5h3-------| x4
|--0~----1~----3~----0~----11---1---1--33-------3-----|
|--0~----------------0~----..----------..-------------|

Guitar2
|-----------------------------------------------------|
|----------------------------1---1-------3---3--------|
|-----------------------------------------------------|
|-----------------------------------------------------|
|--5~-7-5-7-8-7-5h7p5p3---11---1---1--33---3---3------|
|-----------------------------------------------------|
                                                        x4
|-----------------------------------------------------|
|-----------------------------------------------------|
|-----------------------------------------------------|
|----------------------------3---3-------3h5h3--------|
|--5~-7-5-7-8-7-5h7p5p3---11---1---1--33-------3------|
|-------------------------..----------..--------------|

Guitar3 (The 2 last times of the riff 1)
|-----------------------------------------------------|
|-----------------------------------------------------|
|--7~----10~-----9~-----7~----10~-----12~-------------|
|--x------x------x------x------x-------x--------------|
|--5~-----8~-----7~-----5~-----8~-----10~-------------|
|-----------------------------------------------------|

RIFF3
|-------------------------------------------------------|
|-------------------------------------------------------|
|-------------------------------------------------------|
|--10~10101010--9-5--3~3333h5-5555----------------------|
|--10~10101010--9-5--3~3333h5-5555----------------------|
|--10~10101010--9-5--3~3333h5-5555----------------------|
                              ....
|-------------------------------------------------------|
|-------------------------------------------------------|
|--10~10101010--9-5--3~3-33h5-5555-0~-------------------|
|--10~10101010--9-5--3~3-33h5-5555-0~-------------------|
|--10~10101010--9-5--3~3-33h5-5555-0~-------------------|
                              ....
|-------------------------------------------------------|
|-------------------------------------------------------|
|--10~-----------------------------7\3-3-33-------------|
|---x--------Piano-part---then-----7\3-3-33\3-3---------|
|---8~-----------------------------5\1-1-11\3-3---------|
|-------------------------------------------3-3---------|

RIFF4 (x2)
|-------------------------------------------------------|
|-------------------------------------------------------|
|-10------10------10-------(5/7)(5/7)(5/7)--------------|
|-10------10------10--------5/7--5/7--5/7---------------|
|--8-00000-8-00000-8-00000--3/5--3/5--3/5---------------|
|----00000---00000---00000------------------------------|
     .....   .....   .....
|-------------------------------------------------------|
|-------------------------------------------------------|
|-10------10---------3-3-3--(5/7)(5/7)(5/7)-------------|
|-10------10-------0/3-3-3---5/7--5/7--5/7--------------|
|--8-00000-8-00000-0/1-1-1---3/5--3/5--3/5--------------|
|----00000---00000-0------------------------------------|
     .....   ..... .
|-------------------------------------------------------|
|-------------------------------------------------------|
|-10------10------10-------(5/7)(5/7)(5/7)--------------|
|-10------10------10--------5/7--5/7--5/7---------------|
|--8-00000-8-00000-8-00000--3/5--3/5--3/5---------------|
|----00000---00000---00000------------------------------|
     .....   .....   .....
|-------------------------------------|------end--------|
|-------------------------------------|-----------------|
|-10------10---------3-3-33-----------|-----------------|
|-10------10-------0/3-3-33\3-3-3-----|-----3---0~------|
|--8-00000-8-00000-0/1-1-11\3-3-3-----|-----3---0~------|
|----00000---00000-0--------3-3-3-----|-----3---0~------|
     .....   ..... .

| /  slide up
| \  slide down
| h  hammer-on
| p  pull-off
| ~  hold note
| +  harmonic
| x  Mute note
| *  vibrato
| .  palm mute
            
Hard to play? Try these video lessons and learn fast. | Correct




comments powered by Disqus
↑ Back to top | Tablatures and chords are parodies/interpretations of the original songs. You may use it for private study, scholarship, research or language learning purposes only