>
 >
Big Bear And The Hour Of Chaos

Big Bear And The Hour Of Chaos Guitar Tabs

Unearth - Big Bear And The Hour Of Chaos chords, tabs, tablatures, lyrics

Guitar lessons | Add/correct | Request | Top 50 tabs Artists:  A B C D E F G H I J K L M N O P Q R S T U V W X Y Z 0-9

Big Bear And The Hour Of Chaos Guitar Tabs – Unearth

CD, Sheet music, Poster

Do you like Big Bear And The Hour Of Chaos? Share with your friends now
TabsTabs v2Tabs v3
#------------------------------------------------------------------------------##

                         BIG BEAR AND THE HOUR OF CHAOS
                             As recorded by Unearth
                 (From the 2006 Album III: IN THE EYES OF FIRE)

Music by Buz McGrath, Ken Susi
Arranged by Unearth

Gtr I (B F# B E G# C#) - 'Overdrive 1'
Gtr II (B F# B E G# C#) - 'Overdrive 2'
Gtr III (B F# B E G# C#) - 'Clean'

    Q=180
   3/4
    Gtr I
    Q   E  E E E   E E E E E E   E E  E  E  E  E    E E  E  E  E  E
||---------------|-------------|-----------------|------------------|
||o--------------|-------------|-----------------|------------------|
||---------------|-------------|------5-----5----|-------7-----7----|
||---------------|-3-2---2-----|---3-----3-----3-|----5-----5-----5-|
||o-0--(0)-5-3-5-|-----5---5-3-|-1---------------|--3---------------|
||--0---0--------|-------------|-----------------|------------------|
|
|   Gtr II
|   Q   E  E E E   Q   E E E E   Q    E  E  E  E    Q    E  E  E  E
||---------------|-------------|-----------------|------------------|
||o--------------|-------------|-----------------|------------------|
||---------------|-------------|-----------------|------------------|
||--0---0--0-0-0-|-0---0-0-0-0-|-----10-10-10-10-|------12-12-12-12-|
||o-0---0--0-0-0-|-0---0-0-0-0-|-8----8--8--8--8-|-10---10-10-10-10-|
||--0---0--0-0-0-|-0---0-0-0-0-|-8----8--8--8--8-|-10---10-10-10-10-|


  Q   E  E E E   E E E E E E   E E E E E E   E E E E E E
|--------------|-------------|-------------|---------------||
|--------------|-------------|-------------|--------------o||
|--------------|-------------|-------------|---------------||
|--------------|-3-2---2-----|-----3---3-0-|-----2-3-2-----||
|-0--(0)-5-3-5-|-----5---5-3-|---1---1-----|-3-3-------3--o||
|-0---0--------|-------------|-0-----------|---------------||
|
| Q   E  E E E   Q   E E E E   Q   E E E E   Q   E E E E
|--------------|-------------|-------------|---------------||
|--------------|-------------|-------------|--------------o||
|--------------|-------------|-------------|---------------||
|-0---0--0-0-0-|-0---0-0-0-0-|-8---8-8-8-8-|-3---3-3-3-3---||
|-0---0--0-0-0-|-0---0-0-0-0-|-8---8-8-8-8-|-3---3-3-3-3--o||
|-0---0--0-0-0-|-0---0-0-0-0-|-8---8-8-8-8-|-3---3-3-3-3---||


    Q   E  E E E   E E E E E E    E E  E  E  E  E   E E E E E E
||---------------|-------------|------------------|-------------|
||o--------------|-------------|------------------|-------------|
||---------------|-------------|-------5-----5----|-----7---7---|
||---------------|-3-2---2-----|----3-----3-----3-|---5---5---5-|
||o-0--(0)-5-3-5-|-----5---5-3-|--1---------------|-3-----------|
||--0---0--------|-------------|------------------|-------------|
|
|   Q   E  E E E   Q   E E E E    Q    E  E  E  E   Q   E E E E
||---------------|-------------|------------------|-------------|
||o--------------|-------------|------------------|-------------|
||--7---7--7-7-7-|-7---7-7-7-7-|-10---10-10-10-10-|-9---9-9-9-9-|
||---------------|-------------|------------------|-------------|
||o-5---5--5-5-5-|-5---5-5-5-5-|--8----8--8--8--8-|-7---7-7-7-7-|
||---------------|-------------|------------------|-------------|


  Q   E  E E E   E E E E E E    E E  E  E  E  E    E E  E  E  E  E
|--------------|-------------|------------------|--------------------||
|--------------|-------------|------------------|-------------------o||
|--------------|-------------|------------------|--------------------||
|--------------|-3-2---2-----|-------3-----3--0-|-------2--3--2------||
|-0--(0)-5-3-5-|-----5---5-3-|----1-----1-------|--3-3-----------3--o||
|-0---0--------|-------------|--0---------------|--------------------||
|
| Q   E  E E E   Q   E E E E    Q    E  E  E  E    Q    E  E  E  E
|--------------|-------------|------------------|--------------------||
|--------------|-------------|------------------|-------------------o||
|-7---7--7-7-7-|-7---7-7-7-7-|-10---10-10-10-10-|-12---12-12-12-12---||
|--------------|-------------|------------------|--------------------||
|-5---5--5-5-5-|-5---5-5-5-5-|--8----8--8--8--8-|-10---10-10-10-10--o||
|--------------|-------------|------------------|--------------------||


   H.                 +H.                 +H.                 +H.
|------------------|-------------------|-------------------|----------------|
|------------------|-------------------|-------------------|----------------|
|-10---------------|-(10)--------------|-(10)--------------|-(10)-----------|
|------------------|-------------------|-------------------|----------------|
|--8---------------|--(8)--------------|--(8)--------------|--(8)-----------|
|--0---------------|--(0)--------------|--(0)--------------|--(0)-----------|
|
|  H.                 +H.                 +H.                 +H.
|------------------|-------------------|-------------------|----------------|
|------------------|-------------------|-------------------|----------------|
|------------------|-------------------|-------------------|----------------|
|------------------|-------------------|-------------------|----------------|
|--0---------------|--(0)--------------|--(0)--------------|--(0)-----------|
|--0---------------|--(0)--------------|--(0)--------------|--(0)-----------|
|
| Gtr III
|  ~~~                 ~~~~                ~~~~
|  Q    E  E  E  E     Q    E  E  E  E     Q    E  E  E  E     E E E E E E
|------------------|-------------------|-------------------|----------------|
|------------------|-------------------|-------------------|----------------|
|-10---10-10-10-10-|--10---10-10-10-10-|--10---10-10-10-10-|---5s7-5s7-5s7--|
|------------------|-------------------|-------------------|----------------|
|--8----8--8--8--8-|---8----8--8--8--8-|---8----8--8--8--8-|---3s5-3s5-3s5--|
|--0----0--0--0--0-|---0----0--0--0--0-|---0----0--0--0--0-|----------------|


   +H.                 +H.                 +H.            +H.
|-------------------|-------------------|--------------|---------------|
|-------------------|-------------------|--------------|---------------|
|-(10)--------------|-(10)--------------|-(10)---------|-(10)----------|
|-------------------|-------------------|--------------|---------------|
|--(8)--------------|--(8)--------------|--(8)---------|--(8)----------|
|--(0)--------------|--(0)--------------|--(0)---------|--(0)----------|
|
|   H.                 +H.                 +H.            +H.
|-------------------|-------------------|--------------|---------------|
|-------------------|-------------------|--------------|---------------|
|-------------------|-------------------|--------------|---------------|
|-------------------|-------------------|--------------|---------------|
|---0---------------|--(0)--------------|--(0)---------|--(0)----------|
|---0---------------|--(0)--------------|--(0)---------|--(0)----------|
|
|   ~~~~                ~~~~
|   Q    E  E  E  E     Q    E  E  E  E     E  Q  Q  E     E  Q  Q  E
|-------------------|-------------------|--------------|---------------|
|-------------------|-------------------|--------------|---------------|
|--10---10-10-10-10-|--10---10-10-10-10-|--------------|---------------|
|-------------------|-------------------|------3--3--3-|------3--3--3--|
|---8----8--8--8--8-|---8----8--8--8--8-|---0--1--1--1-|---0--3--3--3--|
|---0----0--0--0--0-|---0----0--0--0--0-|---0----------|---0--3--3--3--|


   +H.                 +H.                 +H.                 +H.
|-------------------|-------------------|-------------------|----------------|
|-------------------|-------------------|-------------------|----------------|
|-(10)--------------|-(10)--------------|-(10)--------------|-(10)-----------|
|-------------------|-------------------|-------------------|----------------|
|--(8)--------------|--(8)--------------|--(8)--------------|--(8)-----------|
|--(0)--------------|--(0)--------------|--(0)--------------|--(0)-----------|
|
|   H.                 +H.                 +H.                 +H.
|-------------------|-------------------|-------------------|----------------|
|-------------------|-------------------|-------------------|----------------|
|-------------------|-------------------|-------------------|----------------|
|-------------------|-------------------|-------------------|----------------|
|---0---------------|--(0)--------------|--(0)--------------|--(0)-----------|
|---0---------------|--(0)--------------|--(0)--------------|--(0)-----------|
|
|   ~~~~                ~~~~                ~~~~
|   Q    E  E  E  E     Q    E  E  E  E     Q    E  E  E  E     E E E E E E
|-------------------|-------------------|-------------------|----------------|
|-------------------|-------------------|-------------------|----------------|
|--10---10-10-10-10-|--10---10-10-10-10-|--10---10-10-10-10-|---5s7-5s7-5s7--|
|-------------------|-------------------|-------------------|----------------|
|---8----8--8--8--8-|---8----8--8--8--8-|---8----8--8--8--8-|---3s5-3s5-3s5--|
|---0----0--0--0--0-|---0----0--0--0--0-|---0----0--0--0--0-|----------------|


                                           
   +H.                 +H.                Pick-Slide
|-------------------|-------------------|--------------|---------------|
|-------------------|-------------------|--------------|---------------|
|-(10)--------------|-(10)--------------|--------------|---------------|
|-------------------|-------------------|-////////////-|-/////////////-|
|--(8)--------------|--(8)--------------|-////////////-|-/////////////-|
|--(0)--------------|--(0)--------------|-////////////-|-/////////////-|
|
|  +H.                 +H.                +H.            Pick-SLide
|-------------------|-------------------|--------------|---------------|
|-------------------|-------------------|--------------|---------------|
|-------------------|-------------------|--------------|---------------|
|-------------------|-------------------|--------------|-/////////////-|
|--(0)--------------|--(0)--------------|-(0)----------|-/////////////-|
|--(0)--------------|--(0)--------------|-(0)----------|-/////////////-|
|
|   ~~~~                ~~~~
|   Q    E  E  E  E     Q    E  E  E  E    E Q   Q   E    E Q   Q   E
|-------------------|-------------------|--------------|---------------|
|-------------------|-------------------|--------------|---------------|
|--10---10-10-10-10-|--10---10-10-10-10-|--------------|---------------|
|-------------------|-------------------|----3---3---3-|----3---3---3--|
|---8----8--8--8--8-|---8----8--8--8--8-|--0-1---1---1-|--0-3---3---3--|
|---0----0--0--0--0-|---0----0--0--0--0-|--0-----------|--0-3---3---3--|


    Q   E  E E E   E E E E E E   E E  E  E  E  E    E E  E  E  E  E
||---------------|-------------|-----------------|------------------|
||o--------------|-------------|-----------------|------------------|
||---------------|-------------|------5-----5----|-------7-----7----|
||---------------|-3-2---2-----|---3-----3-----3-|----5-----5-----5-|
||o-0--(0)-5-3-5-|-----5---5-3-|-1---------------|--3---------------|
||--0---0--------|-------------|-----------------|------------------|
|
|   Q   E  E E E   Q   E E E E   Q    E  E  E  E    Q    E  E  E  E
||---------------|-------------|-----------------|------------------|
||o--------------|-------------|-----------------|------------------|
||---------------|-------------|-----------------|------------------|
||--0---0--0-0-0-|-0---0-0-0-0-|-----10-10-10-10-|------12-12-12-12-|
||o-0---0--0-0-0-|-0---0-0-0-0-|-8----8--8--8--8-|-10---10-10-10-10-|
||--0---0--0-0-0-|-0---0-0-0-0-|-8----8--8--8--8-|-10---10-10-10-10-|


  Q   E  E E E   E E E E E E   E E E E E E   E E E E E E
|--------------|-------------|-------------|---------------||
|--------------|-------------|-------------|--------------o||
|--------------|-------------|-------------|---------------||
|--------------|-3-2---2-----|-----3---3-0-|-----2-3-2-----||
|-0--(0)-5-3-5-|-----5---5-3-|---1---1-----|-3-3-------3--o||
|-0---0--------|-------------|-0-----------|---------------||
|
| Q   E  E E E   Q   E E E E   Q   E E E E   Q   E E E E
|--------------|-------------|-------------|---------------||
|--------------|-------------|-------------|--------------o||
|--------------|-------------|-------------|---------------||
|-0---0--0-0-0-|-0---0-0-0-0-|-8---8-8-8-8-|-3---3-3-3-3---||
|-0---0--0-0-0-|-0---0-0-0-0-|-8---8-8-8-8-|-3---3-3-3-3--o||
|-0---0--0-0-0-|-0---0-0-0-0-|-8---8-8-8-8-|-3---3-3-3-3---||


    Q   E  E E E   E E E E E E    E E  E  E  E  E   E E E E E E
||---------------|-------------|------------------|-------------|
||o--------------|-------------|------------------|-------------|
||---------------|-------------|-------5-----5----|-----7---7---|
||---------------|-3-2---2-----|----3-----3-----3-|---5---5---5-|
||o-0--(0)-5-3-5-|-----5---5-3-|--1---------------|-3-----------|
||--0---0--------|-------------|------------------|-------------|
|
|   Q   E  E E E   Q   E E E E    Q    E  E  E  E   Q   E E E E
||---------------|-------------|------------------|-------------|
||o--------------|-------------|------------------|-------------|
||--7---7--7-7-7-|-7---7-7-7-7-|-10---10-10-10-10-|-9---9-9-9-9-|
||---------------|-------------|------------------|-------------|
||o-5---5--5-5-5-|-5---5-5-5-5-|--8----8--8--8--8-|-7---7-7-7-7-|
||---------------|-------------|------------------|-------------|


  Q   E  E E E   E E E E E E    E E  E  E  E  E    E E  E  E  E  E
|--------------|-------------|------------------|--------------------||
|--------------|-------------|------------------|-------------------o||
|--------------|-------------|------------------|--------------------||
|--------------|-3-2---2-----|-------3-----3--0-|-------2--3--2------||
|-0--(0)-5-3-5-|-----5---5-3-|----1-----1-------|--3-3-----------3--o||
|-0---0--------|-------------|--0---------------|--------------------||
|
| Q   E  E E E   Q   E E E E    Q    E  E  E  E    Q    E  E  E  E
|--------------|-------------|------------------|--------------------||
|--------------|-------------|------------------|-------------------o||
|-7---7--7-7-7-|-7---7-7-7-7-|-10---10-10-10-10-|-12---12-12-12-12---||
|--------------|-------------|------------------|--------------------||
|-5---5--5-5-5-|-5---5-5-5-5-|--8----8--8--8--8-|-10---10-10-10-10--o||
|--------------|-------------|------------------|--------------------||


                                                   PM----|
     Q   E  E  E  E    Q  Q  Q    Q  E E E E   E E E E E E
||------------------|-----------|------------|--------------||
||o-----------------|-----------|------------|-------------o||
||------------------|-----------|------------|--------------||
||--10--10-10-10-10-|-10--9--5--|-3--3-3-3-3-|-3s5----------||
||o-10--10-10-10-10-|-10--9--5--|-3--3-3-3-3-|-3s5-5-5-5-5-o||
||--10--10-10-10-10-|-10--9--5--|-3--3-3-3-3-|-3s5-5-5-5-5--||
|
|                                                  PM----|
|    Q   E  E  E  E    Q  Q  Q    Q  E E E E   E E E E E E
||------------------|-----------|------------|--------------||
||o-----------------|-----------|------------|-------------o||
||------------------|-----------|------------|--------------||
||--10--10-10-10-10-|-10--9--5--|-3--3-3-3-3-|-3s5----------||
||o-10--10-10-10-10-|-10--9--5--|-3--3-3-3-3-|-3s5-5-5-5-5-o||
||--10--10-10-10-10-|-10--9--5--|-3--3-3-3-3-|-3s5-5-5-5-5--||


  H.        +H.        +H.        +H.
|---------|----------|----------|----------|
|---------|----------|----------|----------|
|---------|----------|----------|----------|
|-0-------|-(0)------|-(0)------|-(0)------|
|-0-------|-(0)------|-(0)------|-(0)------|
|-0-------|-(0)------|-(0)------|-(0)------|
|
| H.        +H.        +H.        +H.
|---------|----------|----------|----------|
|---------|----------|----------|----------|
|---------|----------|----------|----------|
|-0-------|-(0)------|-(0)------|-(0)------|
|-0-------|-(0)------|-(0)------|-(0)------|
|-0-------|-(0)------|-(0)------|-(0)------|


  +H.        +H.        +H.        +H.
|----------|----------|----------|--------|
|----------|----------|----------|--------|
|----------|----------|----------|--------|
|-(0)------|-(0)------|-(0)------|-(0)----|
|-(0)------|-(0)------|-(0)------|-(0)----|
|-(0)------|-(0)------|-(0)------|-(0)----|
|
| +H.        +H.        +H.        +H.
|----------|----------|----------|--------|
|----------|----------|----------|--------|
|----------|----------|----------|--------|
|-(0)------|-(0)------|-(0)------|-(0)----|
|-(0)------|-(0)------|-(0)------|-(0)----|
|-(0)------|-(0)------|-(0)------|-(0)----|


   H.         +H.         +H.         +H.
|----------|-----------|-----------|-----------|
|----------|-----------|-----------|-----------|
|-10-------|-(10)------|-(10)------|-(10)------|
|----------|-----------|-----------|-----------|
|--8-------|--(8)------|--(8)------|--(8)------|
|----------|-----------|-----------|-----------|
|
| +H.         +H.         +H.         +H.
|----------|-----------|-----------|-----------|
|----------|-----------|-----------|-----------|
|----------|-----------|-----------|-----------|
|-(0)------|--(0)------|--(0)------|--(0)------|
|-(0)------|--(0)------|--(0)------|--(0)------|
|-(0)------|--(0)------|--(0)------|--(0)------|


   +H.         +H.         +H.         +H.
|-----------|-----------|-----------|---------|
|-----------|-----------|-----------|---------|
|-(10)------|-(10)------|-(10)------|-(10)----|
|-----------|-----------|-----------|---------|
|--(8)------|--(8)------|--(8)------|--(8)----|
|-----------|-----------|-----------|---------|
|
|  +H.         +H.         +H.         +H.
|-----------|-----------|-----------|---------|
|-----------|-----------|-----------|---------|
|-----------|-----------|-----------|---------|
|--(0)------|--(0)------|--(0)------|--(0)----|
|--(0)------|--(0)------|--(0)------|--(0)----|
|--(0)------|--(0)------|--(0)------|--(0)----|


  Wx30
|---------| \
|---------|  \
|---------|   \
|---------|    \
|---------|     \
|---------|      \ 
|              30 Bar Piano Break
| Wx30           / 
|---------|     /
|---------|    /
|---------|   /
|---------|  /
|---------| /
|---------|/


  E Q  Q  E   E Q  Q  E
|-----------|-----------|
|-----------|-----------|
|-----------|-----------|
|---3--3--3-|---3--3--3-|
|-0-1--1--1-|-0-3--3--3-|
|-0---------|-0-3--3--3-|
|
| E Q  Q  E   E Q  Q  E
|-----------|-----------|
|-----------|-----------|
|-----------|-----------|
|---3--3--3-|---3--3--3-|
|-0-1--1--1-|-0-3--3--3-|
|-0---------|-0-3--3--3-|


     E E E E E E    E E E E E E    E E E E E E   E E E E E E
||---------------|--------------|--------------|-------------|
||o--------------|--------------|--------------|-------------|
||--10-----------|-10-----------|-10-----------|-5s7-5s7-5s7-|
||---------------|--------------|--------------|-------------|
||o--8-0-0-0-0-0-|--8-0-0-0-0-0-|--8-0-0-0-0-0-|-3s5-3s5-3s5-|
||-----0-0-0-0-0-|----0-0-0-0-0-|----0-0-0-0-0-|-------------|
|
|    E E E E E E    E E E E E E    E E E E E E   E E E E E E
||---------------|--------------|--------------|-------------|
||o--------------|--------------|--------------|-------------|
||--10-----------|-10-----------|-10-----------|-5s7-5s7-5s7-|
||---------------|--------------|--------------|-------------|
||o--8-0-0-0-0-0-|--8-0-0-0-0-0-|--8-0-0-0-0-0-|-3s5-3s5-3s5-|
||-----0-0-0-0-0-|----0-0-0-0-0-|----0-0-0-0-0-|-------------|


   E E E E E E    E E E E E E    E Q   Q   E   E Q   Q   E
|--------------|--------------|--------------|--------------|
|--------------|--------------|--------------|--------------|
|-10-----------|-10-----------|--------------|--------------|
|--------------|--------------|----3---3---3-|---3---3---3--|
|--8-0-0-0-0-0-|--8-0-0-0-0-0-|--0-1---1---1-|-0-3---3---3--|
|----0-0-0-0-0-|----0-0-0-0-0-|--0-----------|-0-3---3---3--|
|
|  E E E E E E    E E E E E E    E E E E E E   E E E E E E
|--------------|--------------|--------------|--------------|
|--------------|--------------|--------------|--------------|
|-10-----------|-10-----------|-10-----------|-5s7-5s7-5s7--|
|--------------|--------------|--------------|--------------|
|--8-0-0-0-0-0-|--8-0-0-0-0-0-|--8-0-0-0-0-0-|-3s5-3s5-3s5--|
|----0-0-0-0-0-|----0-0-0-0-0-|----0-0-0-0-0-|--------------|


   E E E E E E    E E E E E E    E E E E E E   E E E E E E
|--------------|--------------|--------------|--------------|
|--------------|--------------|--------------|--------------|
|-10-----------|-10-----------|-10-----------|-5s7-5s7-5s7--|
|--------------|--------------|--------------|--------------|
|--8-0-0-0-0-0-|--8-0-0-0-0-0-|--8-0-0-0-0-0-|-3s5-3s5-3s5--|
|----0-0-0-0-0-|----0-0-0-0-0-|----0-0-0-0-0-|--------------|
|
|  E E E E E E    E E E E E E    E E E E E E   E E E E E E
|--------------|--------------|--------------|--------------|
|--------------|--------------|--------------|--------------|
|-10-----------|-10-----------|-10-----------|-5s7-5s7-5s7--|
|--------------|--------------|--------------|--------------|
|--8-0-0-0-0-0-|--8-0-0-0-0-0-|--8-0-0-0-0-0-|-3s5-3s5-3s5--|
|----0-0-0-0-0-|----0-0-0-0-0-|----0-0-0-0-0-|--------------|


   E E E E E E    E E E E E E   E Q  Q  E   E Q  Q  E
|--------------|--------------|-----------|-------------||
|--------------|--------------|-----------|------------o||
|-10-----------|-10-----------|-----------|-------------||
|--------------|--------------|---3--3--3-|---3--3--3---||
|--8-0-0-0-0-0-|--8-0-0-0-0-0-|-0-1--1--1-|-0-3--3--3--o||
|----0-0-0-0-0-|----0-0-0-0-0-|-0---------|-0-3--3--3---||
|
|  E E E E E E    E E E E E E   E Q  Q  E   E Q  Q  E
|--------------|--------------|-----------|-------------||
|--------------|--------------|-----------|------------o||
|-10-----------|-10-----------|-----------|-------------||
|--------------|--------------|---3--3--3-|---3--3--3---||
|--8-0-0-0-0-0-|--8-0-0-0-0-0-|-0-1--1--1-|-0-3--3--3--o||
|----0-0-0-0-0-|----0-0-0-0-0-|-0---------|-0-3--3--3---||


  H.        +H.        +H.        +H.
|---------|----------|----------|----------|
|---------|----------|----------|----------|
|---------|----------|----------|----------|
|-0-------|-(0)------|-(0)------|-(0)------|
|-0-------|-(0)------|-(0)------|-(0)------|
|-0-------|-(0)------|-(0)------|-(0)------|
|
| H.        +H.        +H.        +H.
|---------|----------|----------|----------|
|---------|----------|----------|----------|
|---------|----------|----------|----------|
|-0-------|-(0)------|-(0)------|-(0)------|
|-0-------|-(0)------|-(0)------|-(0)------|
|-0-------|-(0)------|-(0)------|-(0)------|


  +H.        +H.        +H.        +H.
|----------|----------|----------|--------|
|----------|----------|----------|--------|
|----------|----------|----------|--------|
|-(0)------|-(0)------|-(0)------|-(0)----|
|-(0)------|-(0)------|-(0)------|-(0)----|
|-(0)------|-(0)------|-(0)------|-(0)----|
|
| +H.        +H.        +H.        +H.
|----------|----------|----------|--------|
|----------|----------|----------|--------|
|----------|----------|----------|--------|
|-(0)------|-(0)------|-(0)------|-(0)----|
|-(0)------|-(0)------|-(0)------|-(0)----|
|-(0)------|-(0)------|-(0)------|-(0)----|


Duration Legend
---------------
W - whole; H - half; Q - quarter; E - 8th; S - 16th; T - 32nd; X - 64th; a - acciaccatura
+ - note tied to previous; . - note dotted; .. - note double dotted
Uncapitalized letters represent notes that are staccato (1/2 duration)
Irregular groupings are notated above the duration line
Duration letters will always appear directly above the note/fret number it represents the
duration for.  Duration letters with no fret number below them represent rests.  Multi-
bar rests are notated in the form Wxn, where n is the number of bars to rest for.  Low
melody durations appear below the staff

Tablature Legend
----------------
 h   - hammer-on
 p   - pull-off
 b   - bend
 pb  - pre-bend
 r   - bend release (if no number after the r, then release immediately)
 /\  - slide into or out of (from/to "nowhere")
 s   - legato slide
 S   - shift slide
  - natural harmonic
[n]  - artificial harmonic
n(n) - tapped harmonic
 ~   - vibrato
 tr  - trill
 T   - tap
 TP  - trem. picking
 PM  - palm muting
\n/  - tremolo bar dip; n = amount to dip
 \n  - tremolo bar down
 n/  - tremolo bar up
/n\  - tremolo bar inverted dip
 =   - hold bend; also acts as connecting device for hammers/pulls
 <>  - volume swell (louder/softer)
 x   - on rhythm slash represents muted slash
 o   - on rhythm slash represents single note slash

Misc Legend
-----------
 |  - bar
||  - double bar
||o - repeat start
o|| - repeat end
*|  - double bar (ending)
 :  - bar (freetime)
 $  - Segno
 &  - Coda
Tempo markers -  = BPM(8/16=s8/s16), where s8 = swing 8ths, s16 = swing 16ths


***************************************************************************************
***************************************************************************************





Comments


Popular Unearth tabs & chords
The Charm Bass Tabs
Failure Tabs
Glorious Nightmare Tabs
Grave Of Opportunity 1 Tabs
My Desire (Solo) Tabs
One Step Away Tabs
Stronghold Tabs
The Great Dividers (Intro) Tabs
This Glorious Nightmare 1 Tabs
This Time Was Mine Tabs


Song lyrics



↑ Back to top | Tablatures and chords are parodies/interpretations of the original songs. You may use it for private study, scholarship, research or language learning purposes only
© 2014 AZChords.com Contact us | Privacy policy | DMCA | Add/correct tabs | Request tabs | Top 50 tabs