>
 >
Youve Got My Number

Youve Got My Number Guitar Tabs

Undertones - Youve Got My Number chords, tabs, tablatures, lyrics

Guitar lessons | Add/correct | Request | Top 50 tabs Artists:  A B C D E F G H I J K L M N O P Q R S T U V W X Y Z 0-9

Youve Got My Number Guitar Tabs – Undertones

CD, Sheet music, Poster

Do you like Youve Got My Number? Share with your friends now
Tabs

Instrument: Guitar

Tuning: Standard (E A D G B E)



intro
E|----------------||
B|--------2-------||
G|------2---------||
D|----3-----------||
A|--4-------------||
E|5---------------||
  A aug5

guitar 1
E|2-------------2-|--------------0-|--------------0-|----------------||
B|3-------------2-|--------------2-|--------------0-|----------------||
G|4-------------2-|--------------2-|--------------1-|----------------||
D|4-------------4-|--------------2-|--------------2-|----------------||
A|2-------------4-|--------------0-|--------------2-|----------------||
E|--------------2-|----------------|--------------0-|----------------||x2
  Bm            F#m              A                E
guitar 2
E|----------------|----------------|----------------|----------------||
B|----------------|----------------|----------------|----------------||
G|4-4-4-4-4-2-----|----------------|----------------|----------------||
D|------------4-4-|--4-4-4-4-2---2-|--2-2-2-2---2-2-|--2-2-2-2-2-2-2-||
A|----------------|------------4---|----------4-----|----------------||
E|----------------|----------------|----------------|----------------||x2

guitar 1
E|2---------------|2---------------||
B|2---------------|2---------------||
G|3---------------|3---------------||
D|4---------------|4---------------||
A|4---------------|4---------------||
E|2---------------|2---------------||
  F#               F#
guitar 2
E|----------------|----------------||
B|----------------|----------------||
G|4-----3---------|6---------------||
D|------------4---|----------------||
A|----------------|----------------||
E|----------------|----------------||



verse
guitar 1
E|----------------||
B|4-------5-------||
G|4-------4-------||
D|4-------2-------||
A|2---------------||
E|----------------||x12
  B5     E5
guitar 2(riff 1)
E|----------------|----------------||
B|----------------|----------------||
G|----------------|----------------||
D|----7-6---------|----7-6---------||
A|--------7-7-6-5-|--------7-7-6-5-||
E|7-7-------------|7-7-------------||x2
(riff 2)
E|----------------|----------------||
B|----------------|----------------||
G|----------------|----------------||
D|------------7-6-|------------7-6-||
A|----5-6-7-7-----|----5-6-7-7-----||
E|7-7-------------|7-7-------------||x4
guitar 1
E|----------------|2---------------|2---------------|2---------------||
B|5---------------|3---------------|2---------------|2---------------||
G|4---------------|2---------------|3---------------|3---------------||
D|2---------------|0---------------|4---------------|4---------------||
A|----------------|----------------|4---------------|4---------------||
E|----------------|----------------|2---------------|2---------------||
  E5               D                F#               F#

guitar 1(last 2 bars of intro leading into middle)
E|2---------------|2-------------4-||
B|2---------------|2-------------4-||
G|3---------------|3-------------5-||
D|4---------------|4-------------6-||
A|4---------------|4-------------6-||
E|2---------------|2-------------4-||
  F#               F#            G#

middle
guitar 1
E|0---------------|0---------------|2---------------|2---------------||
B|2---------------|0---------------|4---------------|2---------------||
G|2---------------|1---------------|4---------------|3---------------||
D|2---------------|2---------------|4---------------|4---------------||
A|0---------------|2---------------|2---------------|4---------------||
E|----------------|0---------------|----------------|2---------------||x4
  A                E                B                F#
E|0---------------|0---------------|2---------------|2---------------||
B|2---------------|0---------------|2---------------|2---------------||
G|2---------------|1---------------|3---------------|3---------------||
D|2---------------|2---------------|4---------------|4---------------||
A|0---------------|2---------------|4---------------|4---------------||
E|----------------|0---------------|2---------------|2---------------||x1
  A                E                F#               F#
guitar 2
E|----------------|----------------|----------------|----------------||
B|----------------|----------------|----------------|----------------||
G|----6-----------|----------------|----8-----------|----------------||
D|7-----9---9-7---|----6-----------|9-----11-11-9---|----8-----------||
A|----------------|7-----9---9-7---|----------------|9-----11-11-9---||
E|----------------|----------------|----------------|----------------||x4


E|----------------|----------------|----------------|----------------||
B|----------------|----------------|----------------|----------------||
G|----6-----------|----------------|----------------|----------------||
D|7-----9---9-7---|----6-----------|----------------|----------------||
A|----------------|7-----9---9-7---|9---------------|----------------||
E|----------------|----------------|----------------|----------------||x1

end
E|----------------||
B|4-4-------------||
G|4-4-------------||
D|4-4-------------||
A|2-2-------------||
E|----------------||x1
  B

intro
verse
verse
intro
middle
verse(riff 1 x2,riff 2 x3)
end





Comments


Popular Undertones tabs & chords
Girls Don't Like It Chords
Male Model Chords
Get Over You Tabs
Jimmy Jimmy Tabs
Teenage Kicks Tabs
Teenage Kicks 1 Tabs
Teenage Kicks 4 Tabs
Wednesday Tabs
Family Entertainment Ukulele
Its Going To Happen Ukulele


Song lyrics



↑ Back to top | Tablatures and chords are parodies/interpretations of the original songs. You may use it for private study, scholarship, research or language learning purposes only
© 2014 AZChords.com Contact us | Privacy policy | DMCA | Add/correct tabs | Request tabs | Top 50 tabs