» » »

Undertones, Teenage Kicks Tabs (ver.3)

Artists:  A B C D E F G H I J K L M N O P Q R S T U V W X Y Z # 

Teenage Kicks Tabs (ver.3)

Undertones Tabs
Rating:
3/5 (3 votes)
Hard to play? Try these video lessons and learn fast.
                Standard Tuning
This is a really easy song to play

Intro and verse: Repeat as many times as needed 
verse starts 'Are Teenage dreams so hard to beat'
-12-12-12-12-12-12-12-12-11-9-9-9-9-9-9-9-9-11-12-12-12-12-12-12-12-12
-12-12-12-12-12-12-12-12-11-9-9-9-9-9-9-9-9-11-12-12-12-12-12-12-12-12
-10-10-10-10-10-10-10-10-9--7-7-7-7-7-7-7-7-9--10-10-10-10-10-10-10-10 

Pre Chorus:
'Another girl in the...'
----------------------------------------------
---------------------------------------------- 
---------------------------------------------- 
-12-12-12-12-12-12-12-12-11-9-9-9-9-9-9-9-9-7-
-12-12-12-12-12-12-12-12-11-9-9-9-9-9-9-9-9-7-
-10-10-10-10-10-10-10-10-9--7-7-7-7-7-7-7-7-5-  

Chorus:
'i wonna holder her wonna hold her tight'                                                                                                                                                        
----------------------------------- 
----------------------------------- 
----------------------------------- 
-5-5-5-5-5-5-5-5-7-7-7-7-7-7-7-7--- 
-5-5-5-5-5-5-5-5-7-7-7-7-7-7-7-7--- 
-3-3-3-3-3-3-3-3-5-5-5-5-5-5-5-5--- 
                                                                               
Then theres a wierd bit with clapping, i just play the verse part there.

Solo:

-------------12-(play 4 times while bending further)-----------9-(play 4 times while bending further)
-12-12-12-12----------------------------------------11-9-9-9-9--------
-12-12-12-12----------------------------------------11-9-9-9-9--------
-10-10-10-10- --------------------------------------9--7-7-7-7--------

-------------12-(play 4 times while bending further)-----------9-(play 4 times while bending further)
-9-12-12-12-12----------------------------------------11-9-9-9-9--------
-9-12-12-12-12----------------------------------------11-9-9-9-9--------
-7-10-10-10-10- --------------------------------------9--7-7-7-7--------

after solo Pre-Chorus

Ending:

---------------------------------- 
---------------------------------- 
---------------------------------- 
-7-7-5-5-9-9-11-12---------------- 
-7-7-5-5-9-9-11-12---------------- 
-5-5-3-3-7-7-9--10---------------- 

Listen to the track to figure out the order.
please rate my tab :)
            

comments powered by Disqus
↑ Back to top | Undertones Tabs for Teenage Kicks. Lyrics for acoustic guitar and electric guitar. Tablatures and chords are parodies/interpretations of the original songs. You may use it for private study, scholarship, research or language learning purposes only