» » »

Undertones, Tearproof Bass tabs (ver.1)

Artists:  A B C D E F G H I J K L M N O P Q R S T U V W X Y Z # 

Tearproof Bass tabs (ver.1)

Undertones Tabs
 Rating:
4/5 (4 votes)
Tearproof lessons Tabs too difficult? Try these video lessons and learn fast
1
                Tuning: Standard(E-A-D-G)
Difficulty: Intermediate

Intro :

G|----------------------------|
D-------0---------------------|
A|-1-0-----1------------------|
E|-----3----------------------|

Verse 1 : ( Chain directly the intro with the verse )

G|---------------------|
D|---------------------|
A|-3-3-3-3-3-----------|
E|-----------0-1-3-----| x10

G|-----------------------------|
D|------------------------0----|
A|-1-1-1-1-1--------1-0--------|
E|-----------0-1-3------3------|

G|---------------------|
D|---------------------|
A|-3-3-3-3-3-----------|
E|-----------0-1-3-----| x2

G|-----------------------------|
D|------------------------0----|
A|-1-1-1-1-1--------1-0--------|
E|-----------0-1-3------3------|

G|-------0-----------------------|
D|-----1-------------------------|
A|-1-3-----1-3-3-1h3-------------|
E|-------------------------------| x2

G|-------0-------------------------------------|
D|-----1---------------------------------------|
A|-1-3-----1-3-3-3-3-3-3-3-3-3-3-3-3-3-3-3-3---|
E|---------------------------------------------|

Verse 2 :

G|---------------------|
D|---------------------|
A|-3-3-3-3-3-----------|
E|-----------0-1-3-----| x6

G|-----------------------------|
D|------------------------0----|
A|-1-1-1-1-1--------1-0--------|
E|-----------0-1-3------3------|

G|---------------------|
D|---------------------|
A|-3-3-3-3-3-----------|
E|-----------0-1-3-----| x2

G|-----------------------------|
D|------------------------0----|
A|-1-1-1-1-1--------1-0--------|
E|-----------0-1-3------3------|

G|-------0-----------------------|
D|-----1-------------------------|
A|-1-3-----1-3-3-1h3-------------|
E|-------------------------------| x2

G|-------0-------------------------------------|
D|-----1---------------------------------------|
A|-1-3-----1-3-3-3-3-3-3-3-3-3-3-3-3-3-3-3-3---|
E|---------------------------------------------|

Solo :

G|-3-3-----3-5-3---------------------------------------------|
D|-----5-3-------5-3-3-----3-5-3-----------------------------|
A|---------------------5-3-------5-3-3-----3-5-3-------------|
E|-------------------------------------5-3-------5-----------| x6


G|-3-3-----3-5-3----------------------------|
D|-----5-3-------5-3-3-----3-5-3------------|
A|---------------------5-3-------5----------|
E|------------------------------------------| 

End : 

G|-------------------------------|
D|-------------------------------|
A|-3-3-3-3-3---------------------|
E|-----------0-1-3---------------| x8

G|-----------------------------|
D|------------------------0----|
A|-1-1-1-1-1--------1-0--------|
E|-----------0-1-3------3------|

G|---------------------|
D|---------------------|
A|-3-3-3-3-3-----------|
E|-----------0-1-3-----| x2

G|-----------------------------|
D|------------------------0----|
A|-1-1-1-1-1--------1-0--------|
E|-----------0-1-3------3------|

G|-------0-----------------------|
D|-----1-------------------------|
A|-1-3-----1-3-3-1h3-------------|
E|-------------------------------| x2

G|-------0------------|
D|-----1--------------|
A|-1-3-----1-3--------|
E|--------------------| 



| h  hammer-on
            
Submit corrections

comments powered by Disqus
↑ Back to top | Undertones Bass for Tearproof. Lyrics for acoustic guitar and electric guitar. 1 Tablatures and chords are parodies/interpretations of the original songs. You may use it for private study, scholarship, research or language learning purposes only