» » »

Undertones, My Perfect Cousin Bass tabs (ver.1)

Artists:  A B C D E F G H I J K L M N O P Q R S T U V W X Y Z # 

My Perfect Cousin Bass tabs (ver.1)

Undertones Tabs
 Rating:
4/5 (4 votes)
My Perfect Cousin lessons Tabs too difficult? Try these video lessons and learn fast
                The Undertones
My perfect cousin

The Score - Nottingham - England

This seems pretty much right and it works live  

 4 bars of guitar intro

  Intro
  
 G|-----------------------------------------------------------------|
 D|-----------------------------------------------------------------|
 A|-----------------7-7-7-7-7-7-7-7-----------------7-7-7-7-7-7-7-7-|
 E|-5-5-5-5-5-5-5-5-----------------5-5-5-5-5-5-5-5-----------------|
                                                                 Now

  Verse

 G|-----------------------------------------------------------------|
 D|-----------------------------------------------------------------|
 A|-----------------7-7-7-7-7-7-7-7-----------------7-7-7-7-7-7-7-7-|
 E|-5-5-5-5-5-5-5-5-----------------5-5-5-5-5-5-5-5-----------------|
  I've got a cousin

 
 G|-----------------------------------------------------------------|
 D|-5-5-5-5-5-5-5-5-----------------5-5-5-5-5-5-5-5-----------------|
 A|-----------------5-5-5-5-5-5-5-5-----------------5-5-5-5-5-5-5-5-|
 E|-----------------------------------------------------------------|
   Always spotless

 G|-----------------------------------------------------------------|
 D|-----------------------------------------------------------------|
 A|-----------------7-7-7-7-7-7-7-7-----------------7-7-7-7-7-7-7-7-|
 E|-5-5-5-5-5-5-5-5-----------------5-5-5-5-5-5-5-5-----------------|
    Fur lined sheepskin

 G|-----------------------------------------------------------------|
 D|-5-5-5-5-5-5-5-5-----------------5-5-5-5-5-5-5-5-----------------|
 A|-----------------5-5-5-5-5-5-5-5-----------------5-5-5-5-5-7-7-7-|
 E|-----------------------------------------------------------------|
   She won't even


  Chorus 

 G|-----------------------------------------------------------------|
 D|-----------------2-2-2-2-2-2-2-2-----------------2-2-2-2-2-2-2-2-|
 A|---------3-3-4-4-------------------------3-3-4-4-----------------|
 E|-5-5-5-5-------------------------5-5-5-5-------------------------|
    My      perfect cousin

 G|-----------------------------------------------------------------|
 D|-----------------------------------------------------------------|
 A|---------3-3-4-4-5-5-5-5-5-5-5-5-4-4-4-4-4-4-4-4-7-7-7-7-7-7-7-7-|
 E|-5-5-5-5---------------------------------------------------------|
   He's his familys 


  Repeat Verse X 1

  Chorus X 1


   Bridge guitars only (I play this on bass cos I'm in a 3 piece)

 G|-------------------------------------------------------------------|
 D|-7-5---------------7-5-----------------------7-5---------------7-5-|
 A|----------7-5---------------75------5-3---------------5-3----------|
 E|-------------------------------------------------------------------|

  (Bass comes in here on the original)
 G|--------------------------------------|
 D|--------------------------------------|
 A|-4-5--------4-5--------4-5--------4-5-|
 E|--------------------------------------|

  
  Repeat Verse X 1

  Chorus X 1

  End
            
Submit corrections

comments powered by Disqus
↑ Back to top | Undertones Bass for My Perfect Cousin. Lyrics for acoustic guitar and electric guitar. Tablatures and chords are parodies/interpretations of the original songs. You may use it for private study, scholarship, research or language learning purposes only