>
 >
Mama's Room 1

Mama's Room 1 Guitar Tabs

Under The Influence Of Giants - Mama's Room 1 chords, tabs, tablatures, lyrics

Guitar lessons | Add/correct | Request | Top 50 tabs Artists:  A B C D E F G H I J K L M N O P Q R S T U V W X Y Z 0-9

Mama's Room 1 Guitar Tabs – Under The Influence Of Giants

CD, Sheet music, Poster

Do you like Mama's Room 1? Share with your friends now
ChordsChords v2TabsTabs v2
------------------------------------------------------------------------------
        Mama's Room - Under the influence of giants
-------------------------------------------------------------------------------

Tuning: Standard (EADGBe)

/ Intro:

                                            
e|---------------------5---|---------------------5---|         
B|---------------------5---|---------------------5---|         
G|--------5-h7--5------5---|--------5-h7--5------5---|x4  
D|-----7--7--7--7------7---|-----7--7--7--7------7---|         
A|--0--------------0-------|--0--------------0-------|         
E|-------------------------|-------------------------|

/ Verse:  

     Somethings got my ...

e|---------------------5---|---------------------5---|         
B|---------------------5---|---------------------5---|         
G|--------5-h7--5------5---|--------5-h7--5------5---|  
D|-----7--7--7--7------7---|-----7--7--7--7------7---|         
A|--0--------------0-------|--0--------------0-------|         
E|-------------------------|-------------------------|

e|-------------------------|-------------------------|        
B|-------------------------|-------------------------|       
G|--------5--5--5-----5----|--------5--5--5-----5----| 
D|-----7--7-h8--7-----7----|-----7--7-h8--7-----7----|     
A|-/8--------------8-------|-/8--------------8-------|    
E|-------------------------|-------------------------|  

e|-------------------------|-------------------------|        
B|-------------------------|-------------------------|       
G|------10--10--------9----|--------5--5--5-----5----| 
D|------10--10-------10----|-----7--7-h8--7-----7----|     
A|-/12-----------12--------|--8--------------8-------|    
E|-------------------------|-------------------------| 

e|---------------------5---|-------------------------|         
B|---------------------5---|--5--5------3--3---------|         
G|--------5-h7--5------5---|--5--5------4--4---------|  
D|-----7--7--7--7------7---|--7--7------5--5---------|         
A|--0--------------0-------|--0--0------0--0---------|         
E|-------------------------|-------------------------|   

/ Chorus:

     Makin' love in ...

e|--8-----8-----8-----8----|--8-----8-----8-----8----|         
B|-10----10----10----10----|-10----10----10----10----|        
G|--9-----9-----9-----9----|--9-----9-----9-----9----| 
D|-10----10----10----10----|-10----10----10----10----|          
A|--0-----0-----0-----0----|--0-----0-----0-----0----|          
E|-------------------------|-------------------------|           

e|--7-----7-----7-----7----|--7-----7-----7-----7----|         
B|--8-----8-----8-----8----|--8-----8-----8-----8----|        
G|--7-----7-----7-----7----|--7-----7-----7-----7----| 
D|--9-----9-----9-----9----|--9-----9-----9-----9----|          
A|--0-----0-----0-----0----|--0-----0-----0-----0----|          
E|-------------------------|-------------------------|

e|--5-----5-----5-----5----|--5-----5-----5-----5----|         
B|--6-----6-----6-----6----|--6-----6-----6-----6----|        
G|--5-----5-----5-----5----|--5-----5-----5-----5----| 
D|--7-----7-----7-----7----|--7-----7-----7-----7----|          
A|-------------------------|-------------------------|          
E|-------------------------|-------------------------|

e|--8-----8-----8-----8----|--8-----8-----8-----8----|         
B|--8-----8-----8-----8----|--8-----8-----8-----8----|        
G|--9-----9-----9-----9----|--9-----9-----9-----9----| 
D|-10----10----10----10----|-10----10----10----10----|          
A|-------------------------|-------------------------|          
E|-------------------------|-------------------------|


| /  slide up
| \  slide down
| h  hammer-on
| p  pull-off
| ~  vibrato
| +  harmonic
| x  Mute note
===============================================================================





Comments


Popular Under The Influence Of Giants tabs & chords
Mamas Room Bass Tabs
Mama's Room Chords
Mama's Room 1 Chords
Lay Me Down Tabs
Lay Me Down 1 Tabs
Lay Me Down 3 Tabs
Mama's Room Tabs
Mamas Room Ukulele


Song lyrics



↑ Back to top | Tablatures and chords are parodies/interpretations of the original songs. You may use it for private study, scholarship, research or language learning purposes only
© 2014 AZChords.com Contact us | Privacy policy | DMCA | Add/correct tabs | Request tabs | Top 50 tabs