» » »

Lay Me Down Tabs (ver.3)

Artists:  A B C D E F G H I J K L M N O P Q R S T U V W X Y Z # 

Lay Me Down Tabs (ver.3)

Under The Influence Of Giants
Rating:
0/5 (0 votes)

Hard to play? Try these video lessons and learn fast.
                Tuning: Standard


Ok so I didn't really listen for the fills during the chorus and stuff but here's all 
chords played by the acoustic guitar... and it's
right-side-up this time...!

Verse

e|-2---2---2-------2---2------2---2----3----5--|
B|-3---3---3-------2---2------3---3----3----5--|
G|-2---2---2-------2---2----4-4---4----4----6--|
D|-0---0---0-----4-4---4---4--4---4----5----7--|
A|--------------4--4---4--2---2---2---5-5--7-7-|
E|-------------2---------------------3----5----|

Play 3 times

Pre-chorus

e|-0---0---0---0---0---0---2---2---2---3--3--3---5--5--5-|
B|-0---0---0---2---2---2---2---2---2---3--3--3---5--5--5-|
G|-0---0---0---2---2---2---2---2---2---4--4--4---6--6--6-|
D|-2---2---2---2---2---2---4---4---4---5--5--5---7--7--7-|
A|-2---2---2---0---0---0---4---4---4---5--5--5---7--7--7-|
E|-0---0---0---------------2---2---2---3--3--3---5--5--5-|

Chorus

    D       G       A       D
e|--2-------3-------0-------2--|  Play 3 times
B|--3-------3-------2-------3--|
G|--2-------0-------2-------2--| I couldn't exactly work
D|--0-------0-------2-------0--| out the timing so just
A|----------2-------0----------| mess around with the chords
E|----------3------------------|

Bridge

e|--0---0---2---2---------2-----------|
B|--0---0---3---3---------3-----------|
G|--0---0---2---2---------2-let ring--|
D|--2---2---0---0---------0-----------|
A|--2---2-------------0-2-------------|
E|--0---0-----------2-----------------|

There's a guitar fill after the bridge but just
go back to the verse part its the same

Go through all this twice and after the second bridge
just play the chorus over and over until the end of the
song. At one point he changes it up and palm mutes certain
parts. Just listen for the variations- it's all pretty
easy though. And that's it!
            
Hard to play? Try these video lessons and learn fast. | Correct




comments powered by Disqus
↑ Back to top | Tablatures and chords are parodies/interpretations of the original songs. You may use it for private study, scholarship, research or language learning purposes only