» » »

Under The Influence Of Giants, Lay Me Down Tabs (ver.1)

Artists:  A B C D E F G H I J K L M N O P Q R S T U V W X Y Z # 

Lay Me Down Tabs (ver.1)

Under The Influence Of Giants Tabs
Rating:
5/5 (2 votes)
Lay Me Down lessons Tabs too difficult? Try these video lessons and learn fast
                -------------------------------------------------------------------------------
-------------------------------------------------------------------------------
First tab, be kind

Tuning: standard

Chords:
C#  -|x4666x|
F   -|133211|
Bbm -|113321|
F#  -|244322|
G#  -|466344|

Verse 1:

  C#                 F                   Bbm          F#     G#
       Wondering how,   I figured it out, that I just waited for you there

  C#                 F                   Bbm           F#      G#
       Wondering how,  I figured it out, now I'm just stuck inside your stare

  C#                 F                   Bbm           F#    G#
       Wondering how,  You figured me out,  I'm just a nobody who cares

  Bbm                F                 F#      G#
       Say....              Only I can say so  oh..

Chorus:

  C#          F#      G#          C#
    Alright,     Ok,     Lay me down

  C#           F#          G#          C#
    She's good,  All time,   All around

  C#          F#      G#          C#
    Alright,     Ok,     Lay me down  

e|6---------------------------------|
B|6---------------------------------|
G|7------------13-------13----------|
D|x---------15----13/15----15p13-11-|
A|x--11--15-------------------------|
E|x---------------------------------|
   hooooooooo

Solo 1: 

Chords play : C# F Bbm F# G#

e|--9---------------------------------------|
B|----9-6---6/7--6/4----9-------4/6-6h7-6---|
G|------------------------8-6---------------|
D|------------------------------------------|
A|------------------------------------------|
E|------------------------------------------|

Verse 1:

  C#                 F             Bbm              F#      G#
       Give me a sign,  Say its ok,      need it to make it though the day

  C#                     F                   Bbm          F#    G#
       Give me your hand,   sell me your soul, need it so i can feel control

  Bbm                F                 F#      G#
       Say....              Only I can say so  oh..

Chorus:

  C#          F#      G#          C#
    Alright,     Ok,     Lay me down

  C#           F#          G#          C#
    She's good,  All time,   All around

  C#          F#      G#          C#
    Alright,     Ok,     Lay me down  

e|6---------------------------------|
B|6---------------------------------|
G|7------------13-------13----------|
D|x---------15----13/15----15p13-11-|
A|x--11--15-------------------------|
E|x---------------------------------|
   hooooooooo

Solo 2:

e|------------------------------------------------------------|
B|------------------------------------------------------------|
G|----------------------------13------------------------------|
D|-------------11-11/13-13h15----15-----13b14r13--11-10-------|
A|--9/11-11h13------------------------------------------11----|
E|------------------------------------------------------------|

e|------------------------------------------------------------|
B|------------------------------------------------------------|
G|----------------------------13--------------13--------------|
D|-------------11-11/13-13h15----15-----13/15----15p13-11-----|
A|--9/11-11h13------------------------------------------------|
E|------------------------------------------------------------|

Bridge:

  Bbm                   G#
  Baby you can bring me down

  Bbm                    G#
  If only I can make you frown

  Bbm                   G#
  Baby you can bring me down

  Bbm                     G#
  I promise not to make a sound

Chorus 2X
            

comments powered by Disqus
↑ Back to top | Under The Influence Of Giants Tabs for Lay Me Down. Lyrics for acoustic guitar and electric guitar. Tablatures and chords are parodies/interpretations of the original songs. You may use it for private study, scholarship, research or language learning purposes only