» » »

Untitled Tabs (ver.2)

Artists:  A B C D E F G H I J K L M N O P Q R S T U V W X Y Z # 

Untitled Tabs (ver.2)

Underscore
Rating:
0/5 (0 votes)

Hard to play? Try these video lessons and learn fast.
                Tuning-Standard
^-Up stroke
*-Palm mute



Intro-

E/----0---------0--------0--------0--------0--------0-----
B/---1--1-1----1--1-1---1—-1-1---1--1-1---0—-0-0---0--0-0-
G/--2--2-2----2--2-2---0—-0-0---0—-0-0---2—-2-2---2--2-2--
D/-2---------2--------2--------2--------2--------2--------
A/--------------------------------------------------------
E/--------------------------------------------------------

E/--------------------
B/----1--------1------
G/---0--0-0---0--0-0--
D/--2--2-2---2--2-2--- x6
A/-3--------3---------
E/--------------------

Chorus-

E/------------------------------------------------------
B/-1-1-11-11-11-1-1--1-1-11-11-11-1-1--0-0-00-00-00-0-0-
G/-2-2-22-22-22-2-2--0-0-00-00-00-0-0--2-2-22-22-22-2-2-
D/-2-2-22-22-22-2-2--2-2-22-22-22-2-2--2-2-22-22-22-2-2-
A/------------------------------------------------------
E/------------------------------------------------------
        ^  ^  ^           ^  ^  ^           ^  ^  ^

E/------------------
B/-1-1-11-11-11-1-1-
G/-0-0-00-00-00-0-0-
D/-2-2-22-22-22-2-2-
A/-3-3-33-33-33-3-3-
E/------------------
        ^  ^  ^
            
Hard to play? Try these video lessons and learn fast. | Correct




comments powered by Disqus
↑ Back to top | Tablatures and chords are parodies/interpretations of the original songs. You may use it for private study, scholarship, research or language learning purposes only