>
 >
Untitled 1

Untitled 1 Guitar Tabs

Underscore - Untitled 1 chords, tabs, tablatures, lyrics

Guitar lessons | Add/correct | Request | Top 50 tabs Artists:  A B C D E F G H I J K L M N O P Q R S T U V W X Y Z 0-9

Untitled 1 Guitar Tabs – Underscore

CD, Sheet music, Poster

Do you like Untitled 1? Share with your friends now
TabsTabs v2
Tuning-Standard
^-Up stroke
*-Palm mute



Intro-

E/----0---------0--------0--------0--------0--------0-----
B/---1--1-1----1--1-1---1-1-1---1--1-1---0-0-0---0--0-0-
G/--2--2-2----2--2-2---0-0-0---0-0-0---2-2-2---2--2-2--
D/-2---------2--------2--------2--------2--------2--------
A/--------------------------------------------------------
E/--------------------------------------------------------

E/--------------------
B/----1--------1------
G/---0--0-0---0--0-0--
D/--2--2-2---2--2-2--- x6
A/-3--------3---------
E/--------------------

Chorus-

E/------------------------------------------------------
B/-1-1-11-11-11-1-1--1-1-11-11-11-1-1--0-0-00-00-00-0-0-
G/-2-2-22-22-22-2-2--0-0-00-00-00-0-0--2-2-22-22-22-2-2-
D/-2-2-22-22-22-2-2--2-2-22-22-22-2-2--2-2-22-22-22-2-2-
A/------------------------------------------------------
E/------------------------------------------------------
        ^  ^  ^           ^  ^  ^           ^  ^  ^

E/------------------
B/-1-1-11-11-11-1-1-
G/-0-0-00-00-00-0-0-
D/-2-2-22-22-22-2-2-
A/-3-3-33-33-33-3-3-
E/------------------
        ^  ^  ^





Comments


Popular Underscore tabs & chords
Lastnight Tabs
Lastnight 1 Tabs
The Fag Song Tabs
Untitled Tabs


Song lyrics



↑ Back to top | Tablatures and chords are parodies/interpretations of the original songs. You may use it for private study, scholarship, research or language learning purposes only
© 2014 AZChords.com Contact us | Privacy policy | DMCA | Add/correct tabs | Request tabs | Top 50 tabs