» » »

Underscore, Lastnight Tabs (ver.1)

Artists:  A B C D E F G H I J K L M N O P Q R S T U V W X Y Z # 

Lastnight Tabs (ver.1)

Underscore Tabs
 Rating:
4/5 (4 votes)
Lastnight lessons Tabs too difficult? Try these video lessons and learn fast
                
Tuning-Dropped D
*-Distortion

Intro-
e---------------------------------|
G---------------------------------|
B-------7---------------7---------| X4
D---7-------7---7----7------7---7-|
A-5---5---4---4---7---7--7---7----|
D---------------------------------|
-Played Kinda Slow

Verse 1-
e----------------------------|
G----------------------------|
B---5------5------5------5---| X2
D-----5------5------5------5-|
A-3------4-------------------|
D---------------3------5-----|

Verse 2-
e----------------------------|
G----------------------------|
B---5------5------5------5---| X1 then play Verse 1, 1 more time
D-----5------5------5------5-|
A-3------4------5------3-----|
D----------------------------|
            
Submit corrections

comments powered by Disqus
↑ Back to top | Underscore Tabs for Lastnight. Lyrics for acoustic guitar and electric guitar. Tablatures and chords are parodies/interpretations of the original songs. You may use it for private study, scholarship, research or language learning purposes only