>
 >
Writing On The Walls Intro

Writing On The Walls Intro Guitar Tabs

Underoath - Writing On The Walls Intro chords, tabs, tablatures, lyrics

Guitar lessons | Add/correct | Request | Top 50 tabs Artists:  A B C D E F G H I J K L M N O P Q R S T U V W X Y Z 0-9

Writing On The Walls Intro Guitar Tabs – Underoath

CD, Sheet music, Poster

Do you like Writing On The Walls Intro? Share with your friends now
Tabs
----------------------------------------------------------------------------------
"writing on the walls"underoath
----------------------------------------------------------------------------------

Tuning: DropD
i no its not right but, i think the intro is if u want both guitar to play the intro...

 Intro
E|---------------------------|
B|--6--6--(-/8-8-8-8-)-8--6--|
G|--5--5--(-/7-7-7-7-)-7--5--|
D|--x--x-----x-x-x-x---x--x--|
A|--5--x-----x-x-x-x---x--3--|
D|-----5--(-/7-7-7-8-)-8-----|
 | 
E|--8--8--(--8-8-8-3-)-3--5--|
B|--6--6--(--6-6-6-3-)-3--6--|
G|---------------------------|
D|---------------------------|
A|---------------------------|
D|---------------------------|

 Verse
E|---------------------------------------------------------------------|
B|---------------------------------------15--15-------15--15------15---|
G|-14--14--14--12--12--12--12--12------17--17--17---17--17--17--17--17-|
D|---15--15--15--15--15--15--15--15-/17----------17-----------17-------|
A|---------------------------------------------------------------------|
D|---------------------------------------------------------------------|
 |
E|---------------------------------------------------------------------|
B|---------------------------------------------------------------------|
G|-7-7-7-7-7-7-7-7-7-7-7-7-7-7-7-7-7-7-7-7-7-7-7-7-7-7-7-7-7-7-7-7-7-7-|
D|-7-7-7-7-7-7-7-7-7-7-7-7-7-7-7-7-7-5-5-5-5-5-5-5-5-5-5-5-5-5-5-5-5-5-|
A|-5-5-5-5-5-5-5-5-5-5-5-5-5-5-5-5-5-5-5-5-5-5-5-5-5-5-5-5-5-5-5-5-5-5-|
D|-----------------------------------5-5-5-5-5-5-5-5-5-5-5-5-5-5-5-5-5-|

E|-17--17-20~-17--17--17~--17--17--17--15--15--17--15--15-17~--15--17~--15---|
B|---18---------18--18-------18--18--18--18--18--18--18------18--18---18-18\-|
G|---------------------------------------------------------------------------|
D|---------------------------------------------------------------------------|
A|---------------------------------------------------------------------------|
D|---------------------------------------------------------------------------|
 |
E|---------------------------------------------------------------------------|
B|---------------------------------------------------------------------------|
G|-1010101010101010101010101010101010101010-12-12-12-12-12-12-12-12-12-12-12-|
D|-8-8-8-8-8-8-8-8-8-8-8-8-8-8-8-8-8-8-8-10-10-10-10-10-10-10-10-10-10-10-10-|
A|-8-8-8-8-8-8-8-8-8-8-8-8-8-8-8-8-8-8-8-10-10-10-10-10-10-10-10-10-10-10-10-|
D|-8-8-8-8-8-8-8-8-8-8-8-8-8-8-8-8-8-8-8-10-10-10-10-10-10-10-10-10-10-10-10-|


 Verse 2
E|---------------------------------------|  
B|---6~----6-6-6-6-10-10-10-10-8-8-8-8---|  
G|------9~---9-9-9-9--9--9--9--9-9-9-9-9-|  
D|-0-------------------------------------|  
A|-0-------------------------------------|  
D|-0-------------------------------------| 
 |
E|---------------------------------------| 
B|---------------------------------------| 
G|-7-10-9~-------------------------------| 
D|-7-x--x--------------------------------| 
A|-5-8--7~-------------------------------| 
D|---------------------------------------| 

E|----------------------------------------|  
B|---6~----6-6-6-6-3-3-3-3-10-10-10-10-10-|  
G|-----9~---9-9-9-9-5-5-5-5-12-12-12--12--|  
D|-0--------------------------------------|  
A|-0--------------------------------------|  
D|-0--------------------------------------|  
 |
E|----------------------------------------|
B|----------------------------------------|
G|-7---5---------------------/12-12-12-12-|
D|-7-5-5-----------------------x--x-x--x--|
A|-5-5-3---------------------/12-12-12-12-|
E|---5------------------------------------|


E|----------------------------------------------------------------------------------|  
B|-6-6-6-6-6-6-6-6-6-6-6-6-6-6-6-6-6--6--6--6--6--6--6--6--6--6--6--6--6--6--6--6---|  
G|-9-9-9-9-9-9-9-9-9-9-9-9-9-9-9-9-9--9--9--9--9--9--9--9--9--9--9--9--9--9--9--9---|  
D|-0-0-0-0-0-0-0-0-0-0-0-0-0-0-0-0-0--0--0--0--0--0--0--0--0--0--0--0--0--0--0--0---|  
A|-0-0-0-0-0-0-0-0-0-0-0-0-0-0-0-0-0--0--0--0--0--0--0--0--0--0--0--0--0--0--0--0---|  
D|-0-0-0-0-0-0-0-0-0-0-0-0-0-0-0-0-0--0--0--0--0--0--0--0--0--0--0--0--0--0--0--0---| 
 |
E|----------------------------------------------------------------------------------|
B|----------------------------------------------------------------------------------|
G|-9-9-9-9-9-9-9-9-9-9-9-9-9-9-9-9-10-10-10-10-10-10-10-10-12-12-12-12-12-12-12-12--|
D|-x-x-x-x-x-x-x-x-x-x-x-x-x-x-x-x-x--x--x--x--x--x--x--x--x--x--x--x--x--x--x--x---|
A|-7-7-7-7-7-7-7-7-7-7-7-7-7-7-7-7-8--8--8--8--8--8--8--8--10-10-10-10-10-10-10-10--|
D|----------------------------------------------------------------------------------|


E|--------------------------------------------|  
B|-6-6-6-6-6-6-6-6-6-6-6-6-6-6-6-6-6-6-6-6-6-6|  
G|-9-9-9-9-9-9-9-9-9-9-9-9-9-9-9-9-9-9-9-9-9-9|  
D|-0-0-0-0-0-0-0-0-0-0-0-0-0-0-0-0-0-0-0-0-0-0|  
A|-0-0-0-0-0-0-0-0-0-0-0-0-0-0-0-0-0-0-0-0-0-0|  
D|-0-0-0-0-0-0-0-0-0-0-0-0-0-0-0-0-0-0-0-0-0-0|
 | 
E|--------------------------------------------|
B|----8----8----8----8----8----8----8----8----|
G|-10---10---10---10---10---10---10---10------|
D|--------------------------------------------|
A|--------------------------------------------|
D|--------------------------------------------|

E|----------------------------------------------------------------------------------|  
B|-6-6-6-6-6-6-6-6-6-6-6-6-6-6-6-6-6--6--6--6--6--6--6--6--6--6--6--6--6--6--6--6---|  
G|-9-9-9-9-9-9-9-9-9-9-9-9-9-9-9-9-9--9--9--9--9--9--9--9--9--9--9--9--9--9--9--9---|  
D|-0-0-0-0-0-0-0-0-0-0-0-0-0-0-0-0-0--0--0--0--0--0--0--0--0--0--0--0--0--0--0--0---|  
A|-0-0-0-0-0-0-0-0-0-0-0-0-0-0-0-0-0--0--0--0--0--0--0--0--0--0--0--0--0--0--0--0---|  
D|-0-0-0-0-0-0-0-0-0-0-0-0-0-0-0-0-0--0--0--0--0--0--0--0--0--0--0--0--0--0--0--0---| 
 |
E|----------------------------------------------------------------------------------|
B|----------------------------------------------------------------------------------|
G|-9-9-9-9-9-9-9-9-9-9-9-9-9-9-9-9-10-10-10-10-10-10-10-10-12-12-12-12-14-14-14-14--|
D|-x-x-x-x-x-x-x-x-x-x-x-x-x-x-x-x-x--x--x--x--x--x--x--x--x--x--x--x--x--x--x--x---|
A|-7-7-7-7-7-7-7-7-7-7-7-7-7-7-7-7-8--8--8--8--8--8--8--8--10-10-10-10-12-12-12-12--|
D|----------------------------------------------------------------------------------|


E|--------------------------------------------|  
B|-6-6-6-6-6-6-6-6-6-6-6-6-6-6-6-6-6-6-6-6-6-6|  
G|-9-9-9-9-9-9-9-9-9-9-9-9-9-9-9-9-9-9-9-9-9-9|  
D|-0-0-0-0-0-0-0-0-0-0-0-0-0-0-0-0-0-0-0-0-0-0|  
A|-0-0-0-0-0-0-0-0-0-0-0-0-0-0-0-0-0-0-0-0-0-0|  
D|-0-0-0-0-0-0-0-0-0-0-0-0-0-0-0-0-0-0-0-0-0-0|
 | 
E|--------------------------------------------|
B|----10---10---10---10---10---10---10---10---|
G|-12---12---12---12---12---12---12---12------|
D|--------------------------------------------|
A|--------------------------------------------|
D|--------------------------------------------|





Comments


Popular Underoath tabs & chords
Its Dangerous Business Walking Out Your Front Door 2 Bass Tabs
There Could Be Nothing After This 2 Bass Tabs
Youre So Intricate Bass Tabs
Reinventing Your Exit 3 Chords
Its Dangerous Business Walking Out Your Front Door 1 Tabs
Short Of Daybreak Tabs
Vacant Mouth Tabs
We Are The Involuntary Tabs
Paper Lung Ukulele
Some Will Seek Forgiveess Others Escape Ukulele


Song lyrics



↑ Back to top | Tablatures and chords are parodies/interpretations of the original songs. You may use it for private study, scholarship, research or language learning purposes only
© 2014 AZChords.com Contact us | Privacy policy | DMCA | Add/correct tabs | Request tabs | Top 50 tabs