>
 >
Those Who Reach An Endless Trail

Those Who Reach An Endless Trail Guitar Tabs

Underoath - Those Who Reach An Endless Trail chords, tabs, tablatures, lyrics

Guitar lessons | Add/correct | Request | Top 50 tabs Artists:  A B C D E F G H I J K L M N O P Q R S T U V W X Y Z 0-9

Those Who Reach An Endless Trail Guitar Tabs – Underoath

CD, Sheet music, Poster

Do you like Those Who Reach An Endless Trail? Share with your friends now
Tabs
	



Am
7 x 10 9 x x
	
C
3 x x 5 5 x
	
Gsus4add6
5 x x 5 5 x
	
AmIX
x 12 10 9 x x
C/F
x 8 10 9 x x
	
C/G
x 10 10 9 x x
	
F5/G
x 10 10 10 x x
	
Gsus4
x 10 10 7 x x
G
x 10 9 0 x x
	
AmVII(type 2)
7 7 10 x x x
	
Em/C
10 10 14 x x x
	
C5/F
3 3 5 x x x
Em/G
5 7 5 x x x
	
Fsus2/G
5 8 5 x x x
	
G5
5 5 5 x x x

Gtr I (D A D G B E) - 'rhythm'
Gtr II (D A D G B E) - 'lead'
Gtr III (D A D G B E) - 'synth'
Gtr IV (D A D G B E) - 'clean keys'
Gtr V (D A D G B E) - 'clean guitar'
Gtr VI (E A D G B E) - 'Untitled'

    Q=190
    Am
   4/2
    Gtr I
     E  E  E  E  E  E  E  E  E  E  E  E  E  E  E  E
||--------------------------------------------------|
||o-------------------------------------------------|
||---9--9--9--9--9--9--9--9--9--9--9--9--9--9--9--9-|
||--10-10-10-10-10-10-10-10-10-10-10-10-10-10-10-10-|
||o-------------------------------------------------|
||---7--7--7--7--7--7--7--7--7--7--7--7--7--7--7--7-|
|
|   Gtr II
|    E  E  E  E  E  E  E  E  E  E  E  E  E  E  E  E
||--------------------12-12-12-12-12-12-------------|
||o-13-13-13-12-12-12-------------------12-12-13-13-|
||--------------------------------------------------|
||--------------------------------------------------|
||o-------------------------------------------------|
||--------------------------------------------------|


  C                       Gsus4add6
   E  E  E  E  E  E  E  E  E  E  E  E  E  E  E  E
|--------------------------------------------------||
|--5--5--5--5--5--5--5--5--5--5--5--5--5--5--5--5-o||
|--5--5--5--5--5--5--5--5--5--5--5--5--5--5--5--5--||
|--------------------------------------------------||
|-------------------------------------------------o||
|--3--3--3--3--3--3--3--3--5--5--5--5--5--5--5--5--||
|
|  E  E  E  E  E  E  E  E  E  E  E  E  E  E  E  E
|-------------------15-15-15-15-15-15-13-13-12-12--||
|-13-13-13-12-12-12-------------------------------o||
|--------------------------------------------------||
|--------------------------------------------------||
|-------------------------------------------------o||
|--------------------------------------------------||


  AmIX
  Gtr I
   W                     +W
|---------------------|-----------------------|
|---------------------|-----------------------|
|-12------------------|-(12)------------------|
|---------------------|-----------------------|
|---------------------|-----------------------|
|--7------------------|--(7)------------------|
|
| Gtr II
|  E  E  E   E  E  E      E   E  E    E  E  E
|---------------------|-----------------------|
|---------------------|-----------------------|
|--9--9--9---9--9--9--|---9---9--9----9--9--9-|
|-10-10-10--10-10-10--|--10--10-10---10-10-10-|
|-12-12-12--12-12-12--|--12--12-12---12-12-12-|
|---------------------|-----------------------|


  C/F
   W                    +W
|---------------------|----------------------|
|--5------------------|-(5)------------------|
|---------------------|----------------------|
|---------------------|----------------------|
|---------------------|----------------------|
|--3------------------|-(3)------------------|
|
|  E  E  E   E  E  E     E   E  E    E  E  E
|---------------------|----------------------|
|---------------------|----------------------|
|--9--9--9---9--9--9--|--9---9--9----9--9--9-|
|-10-10-10--10-10-10--|-10--10-10---10-10-10-|
|--8--8--8---8--8--8--|--8---8--8----8--8--8-|
|---------------------|----------------------|


  C/G                   F5/G
  Gtr I
   W                    +W
|---------------------|----------------------|
|---------------------|----------------------|
|---------------------|----------------------|
|--9------------------|-(9)------------------|
|---------------------|----------------------|
|--5------------------|-(5)------------------|
|
| Gtr II
|  E  E  E   E  E  E     E   E  E    E  E  E
|---------------------|----------------------|
|---------------------|----------------------|
|--9--9--9---9--9--9--|-10--10-10---10-10-10-|
|-10-10-10--10-10-10--|-10--10-10---10-10-10-|
|-10-10-10--10-10-10--|-10--10-10---10-10-10-|
|---------------------|----------------------|
|
| Gtr III
|  W                     W
|---------------------|----------------------|
|-17------------------|-18-------------------|
|---------------------|----------------------|
|-14------------------|-15-------------------|
|---------------------|----------------------|
|---------------------|----------------------|


  Gsus4                  G
   H        +H            H        +E
|----------------------|------------------------|
|----------------------|------------------------|
|--7--------(7)--------|--5--------(5)----------|
|----------------------|------------------------|
|----------------------|------------------------|
|--5--------(5)--------|--5--------(5)----------|
|
|  E  E  E   E   E  E     E  E  E       E  E  E
|----------------------|------------------------|
|----------------------|------------------------|
|--7--7--7---7---7--7--|--0--0--0-------0--0--0-|
|-10-10-10--10--10-10--|--9--9--9-------9--9--9-|
|-10-10-10--10--10-10--|-10-10-10------10-10-10-|
|----------------------|------------------------|
|
|  W                      W
|----------------------|------------------------|
|-15-------------------|-13---------------------|
|----------------------|------------------------|
|-12-------------------|-10---------------------|
|----------------------|------------------------|
|----------------------|------------------------|


  AmIX
  Gtr I
   W                     +W
|---------------------|-----------------------|
|---------------------|-----------------------|
|-12------------------|-(12)------------------|
|---------------------|-----------------------|
|---------------------|-----------------------|
|--7------------------|--(7)------------------|
|
| Gtr II
|  E  E  E    E  E  E     E   E  E    E  E  E
|---------------------|-----------------------|
|---------------------|-----------------------|
|--9--9--9----9--9--9-|---9---9--9----9--9--9-|
|-10-10-10---10-10-10-|--10--10-10---10-10-10-|
|-12-12-12---12-12-12-|--12--12-12---12-12-12-|
|---------------------|-----------------------|


  C/F
   W                    +W
|---------------------|----------------------|
|--5------------------|-(5)------------------|
|---------------------|----------------------|
|---------------------|----------------------|
|---------------------|----------------------|
|--3------------------|-(3)------------------|
|
|  E  E  E    E  E  E    E   E  E    E  E  E
|---------------------|----------------------|
|---------------------|----------------------|
|--9--9--9----9--9--9-|--9---9--9----9--9--9-|
|-10-10-10---10-10-10-|-10--10-10---10-10-10-|
|--8--8--8----8--8--8-|--8---8--8----8--8--8-|
|---------------------|----------------------|


  C/G                    F5/G
  Gtr I
   W                     +W
|----------------------|-----------------------|
|----------------------|-----------------------|
|----------------------|-----------------------|
|--9-------------------|-(9)-------------------|
|----------------------|-----------------------|
|--5-------------------|-(5)-------------------|
|
| Gtr II
|  E  E  E     E  E  E    E   E  E     E  E  E
|----------------------|-----------------------|
|----------------------|-----------------------|
|--9--9--9-----9--9--9-|-10--10-10----10-10-10-|
|-10-10-10----10-10-10-|-10--10-10----10-10-10-|
|-10-10-10----10-10-10-|-10--10-10----10-10-10-|
|----------------------|-----------------------|
|
| Gtr III
|  W                      W
|----------------------|-----------------------|
|-17-------------------|-18--------------------|
|----------------------|-----------------------|
|-14-------------------|-15--------------------|
|----------------------|-----------------------|
|----------------------|-----------------------|


  Gsus4                     G
   H        +H               H        +E
|-------------------------|-------------------------|
|-------------------------|-------------------------|
|--7--------(7)-----------|--5--------(5)-----------|
|-------------------------|-------------------------|
|-------------------------|-------------------------|
|--5--------(5)-----------|--5--------(5)-----------|
|
|  E  E  E        E  E  E    E  E  E        E  E  E
|-------------------------|-------------------------|
|-------------------------|-------------------------|
|--7--7--7--------7--7--7-|--0--0--0--------0--0--0-|
|-10-10-10-------10-10-10-|--9--9--9--------9--9--9-|
|-10-10-10-------10-10-10-|-10-10-10-------10-10-10-|
|-------------------------|-------------------------|
|
|  W                         W
|-------------------------|-------------------------|
|-15----------------------|-13----------------------|
|-------------------------|-------------------------|
|-12----------------------|-10----------------------|
|-------------------------|-------------------------|
|-------------------------|-------------------------|


  Gtr I
   W                  +W                   +W
|-------------------|--------------------|--------------------|-----------|
|-------------------|--------------------|--------------------|-----------|
|-------------------|--------------------|--------------------|-----------|
|--3----------------|-(3)----------------|-(3)----------------|-----------|
|--3----------------|-(3)----------------|-(3)----------------|-----------|
|--3----------------|-(3)----------------|-(3)----------------|-----------|
|
| Gtr II
|  Q   +Q    Q   Q     Q    +Q    Q   Q     Q    +Q    Q   Q     W
|-------------------|--------------------|--------------------|-----------|
|-15--(15)--17--13--|-15---(15)--17--13--|-15---(15)--17--13--|-17b18\----|
|-------------------|--------------------|--------------------|-----------|
|-------------------|--------------------|--------------------|-----------|
|-------------------|--------------------|--------------------|-----------|
|-------------------|--------------------|--------------------|-----------|


  Q=190
  AmVII(type 2)
  Gtr I
   E  E  E  E  E  E  E  E    E  E  E  E  E  E  E  E
|-------------------------|-------------------------|
|-------------------------|-------------------------|
|-------------------------|-------------------------|
|-10-10-10-10-10-10-10-10-|-10-10-10-10-10-10-10-10-|
|--7--7--7--7--7--7--7--7-|--7--7--7--7--7--7--7--7-|
|--7--7--7--7--7--7--7--7-|--7--7--7--7--7--7--7--7-|
|
| Gtr II
|  E  E  E  E  E  E  E  E    E  E  E  E  E  E  E  E
|-------------------12-12-|-12-12-12-12-------------|
|-13-13-13-12-12-12-------|-------------13-13-12-12-|
|-------------------------|-------------------------|
|-------------------------|-------------------------|
|-------------------------|-------------------------|
|-------------------------|-------------------------|


  Em/C
   E  E  E  E  E  E  E  E    E  E  E  E  E  E  E  E
|-------------------------|-------------------------|
|-------------------------|-------------------------|
|-------------------------|-------------------------|
|-14-14-14-14-14-14-14-14-|-14-14-14-14-14-14-14-14-|
|-10-10-10-10-10-10-10-10-|-10-10-10-10-10-10-10-10-|
|-10-10-10-10-10-10-10-10-|-10-10-10-10-10-10-10-10-|
|
|  E  E  E  E  E  E  E  E    E  E  E  E  E  E  E  E
|-------------------12-12-|-12-12-12-12-------------|
|-13-13-13-12-12-12-------|-------------13-13-12-12-|
|-------------------------|-------------------------|
|-------------------------|-------------------------|
|-------------------------|-------------------------|
|-------------------------|-------------------------|


  Q=190
  C5/F
  Gtr I
   E  E  E  E  E  E  E  E    E  E  E  E  E  E  E  E
|-------------------------|-------------------------|
|-------------------------|-------------------------|
|-------------------------|-------------------------|
|--5--5--5--5--5--5--5--5-|--5--5--5--5--5--5--5--5-|
|--3--3--3--3--3--3--3--3-|--3--3--3--3--3--3--3--3-|
|--3--3--3--3--3--3--3--3-|--3--3--3--3--3--3--3--3-|
|
| Gtr II
|  E  E  E  E  E  E  E  E    E  E  E  E  E  E  E  E
|-------------------15-15-|-15-15-15-15-13-13-12-12-|
|-13-13-13-12-12-12-------|-------------------------|
|-------------------------|-------------------------|
|-------------------------|-------------------------|
|-------------------------|-------------------------|
|-------------------------|-------------------------|


  Em/G              Fsus2/G             G5
   E  E  E  E  E  E  E  E    E  E  E  E  E  E  E  E
|-------------------------|-------------------------|
|-------------------------|-------------------------|
|-------------------------|-------------------------|
|--5--5--5--5--5--5--5--5-|--5--5--5--5--5--5--5--5-|
|--7--7--7--7--7--7--8--8-|--8--8--8--8--5--5--5--5-|
|--5--5--5--5--5--5--5--5-|--5--5--5--5--5--5--5--5-|
|
|  E  E  E  E  E  E  E  E    E  E  E  E  E  E  E  E
|-------------------15-15-|-15-15-15-15-13-13-12-12-|
|-13-13-13-12-12-12-------|-------------------------|
|-------------------------|-------------------------|
|-------------------------|-------------------------|
|-------------------------|-------------------------|
|-------------------------|-------------------------|


  AmVII(type 2)
  Gtr I
   E  E  E  E  E  E  E  E    E  E  E  E  E  E  E  E
|-------------------------|-------------------------|
|-------------------------|-------------------------|
|-------------------------|-------------------------|
|-10-10-10-10-10-10-10-10-|-10-10-10-10-10-10-10-10-|
|--7--7--7--7--7--7--7--7-|--7--7--7--7--7--7--7--7-|
|--7--7--7--7--7--7--7--7-|--7--7--7--7--7--7--7--7-|
|
| Gtr II
|  E  E  E  E  E  E  E  E    E  E  E  E  E  E  E  E
|--0--0--0--0--0--0--0--0-|--0--0--0--0-------------|
|-10-10-10-12-12-12-13-13-|-13-15-15-15-10p=8-10p=8-|
|-------------------------|-------------------------|
|-------------------------|-------------------------|
|-------------------------|-------------------------|
|-------------------------|-------------------------|


  Em/C
   E  E  E  E  E  E  E  E    E  E  E  E  E  E  E  E
|-------------------------|-------------------------|
|-------------------------|-------------------------|
|-------------------------|-------------------------|
|-14-14-14-14-14-14-14-14-|-14-14-14-14-14-14-14-14-|
|-10-10-10-10-10-10-10-10-|-10-10-10-10-10-10-10-10-|
|-10-10-10-10-10-10-10-10-|-10-10-10-10-10-10-10-10-|
|
|  E  E  E  E  E  E  E  E    E  E  E  E  E  E  E  E
|--0--0--0--0--0--0--0--0-|--0--0--0--0-------------|
|-10-10-10-12-12-12-13-13-|-13-15-15-15-10p=8-10p=8-|
|-------------------------|-------------------------|
|-------------------------|-------------------------|
|-------------------------|-------------------------|
|-------------------------|-------------------------|


  C5/F
  Gtr I
   PM|       PM|           PM|           PM|
   E E E +E  E E  E +E     E E   E  +E   E  E  E  +E
|-----------------------|-----------------------------|
|-----------------------|-----------------------------|
|-----------------------|-----------------------------|
|--5-5-5-(5)-5-5--5-(5)-|--5-5---5--(5)--5--5--5--(5)-|
|--3-3-3-(3)-3-3--3-(3)-|--3-3---3--(3)--3--3--3--(3)-|
|--3-3-3-(3)-3-3--3-(3)-|--3-3---3--(3)--3--3--3--(3)-|
|
| Gtr II
|  Q      Q       H        Q    +Q       E  E  E  +E
|-----------------------|-----------------------------|
|-17-----15------13-----|-15---(15)-----12-13-12-(12)-|
|-----------------------|-----------------------------|
|-----------------------|-----------------------------|
|-----------------------|-----------------------------|
|-----------------------|-----------------------------|


  Em/G
   E  E  E  E  E  E  E  E    E  E  E  E  E  E  E  E
|-------------------------|-------------------------|
|-------------------------|-------------------------|
|-------------------------|-------------------------|
|--5--5--5--5--5--5--5--5-|--5--5--5--5--5--5--5--5-|
|--7--7--7--7--7--7--8--8-|--8--8--8--8--5--5--5--5-|
|--5--5--5--5--5--5--5--5-|--5--5--5--5--5--5--5--5-|
|
|  E  E  E  E  E  E  E  E    E  E  E  E  E  E  E  E
|-------------------------|-------------------------|
|-17-17-17-17-17-17-18-18-|-18-18-18-18-15-15-15-15-|
|-------------------------|-------------------------|
|-14-14-14-14-14-14-15-15-|-15-15-15-15-12-12-12-12-|
|-------------------------|-------------------------|
|-------------------------|-------------------------|


  Gtr I
   W                     +W
|---------------------|-----------------------|
|---------------------|-----------------------|
|-12------------------|-(12)------------------|
|---------------------|-----------------------|
|---------------------|-----------------------|
|--7------------------|--(7)------------------|
|
| Gtr II
|  E  E  E    E  E  E     E   E  E    E  E  E
|---------------------|-----------------------|
|---------------------|-----------------------|
|--9--9--9----9--9--9-|---9---9--9----9--9--9-|
|-10-10-10---10-10-10-|--10--10-10---10-10-10-|
|-12-12-12---12-12-12-|--12--12-12---12-12-12-|
|---------------------|-----------------------|


   W                    +W
|---------------------|----------------------|
|--5------------------|-(5)------------------|
|---------------------|----------------------|
|---------------------|----------------------|
|---------------------|----------------------|
|--3------------------|-(3)------------------|
|
|  E  E  E    E  E  E    E   E  E    E  E  E
|---------------------|----------------------|
|---------------------|----------------------|
|--9--9--9----9--9--9-|--9---9--9----9--9--9-|
|-10-10-10---10-10-10-|-10--10-10---10-10-10-|
|--8--8--8----8--8--8-|--8---8--8----8--8--8-|
|---------------------|----------------------|


  Gtr I
   W                    +W
|---------------------|----------------------|
|---------------------|----------------------|
|---------------------|----------------------|
|--9------------------|-(9)------------------|
|---------------------|----------------------|
|--5------------------|-(5)------------------|
|
| Gtr II
|  E  E  E    E  E  E    E   E  E    E  E  E
|---------------------|----------------------|
|---------------------|----------------------|
|--9--9--9----9--9--9-|-10--10-10---10-10-10-|
|-10-10-10---10-10-10-|-10--10-10---10-10-10-|
|-10-10-10---10-10-10-|-10--10-10---10-10-10-|
|---------------------|----------------------|
|
| Gtr III
|  W                     W
|---------------------|----------------------|
|-17------------------|-18-------------------|
|---------------------|----------------------|
|-14------------------|-15-------------------|
|---------------------|----------------------|
|---------------------|----------------------|


   H        +H              H        +E
|------------------------|------------------------|
|------------------------|------------------------|
|--7--------(7)----------|--5--------(5)----------|
|------------------------|------------------------|
|------------------------|------------------------|
|--5--------(5)----------|--5--------(5)----------|
|
|  E  E  E       E  E  E    E  E  E       E  E  E
|------------------------|------------------------|
|------------------------|------------------------|
|--7--7--7-------7--7--7-|--0--0--0-------0--0--0-|
|-10-10-10------10-10-10-|--9--9--9-------9--9--9-|
|-10-10-10------10-10-10-|-10-10-10------10-10-10-|
|------------------------|------------------------|
|
|  W                        W
|------------------------|------------------------|
|-15---------------------|-13---------------------|
|------------------------|------------------------|
|-12---------------------|-10---------------------|
|------------------------|------------------------|
|------------------------|------------------------|


  Gtr I
   W                     +W
|---------------------|-----------------------|
|---------------------|-----------------------|
|-12------------------|-(12)------------------|
|---------------------|-----------------------|
|---------------------|-----------------------|
|--7------------------|--(7)------------------|
|
| Gtr II
|  E  E  E    E  E  E     E   E  E    E  E  E
|---------------------|-----------------------|
|---------------------|-----------------------|
|--9--9--9----9--9--9-|---9---9--9----9--9--9-|
|-10-10-10---10-10-10-|--10--10-10---10-10-10-|
|-12-12-12---12-12-12-|--12--12-12---12-12-12-|
|---------------------|-----------------------|


   W                    +W
|---------------------|----------------------|
|--5------------------|-(5)------------------|
|---------------------|----------------------|
|---------------------|----------------------|
|---------------------|----------------------|
|--3------------------|-(3)------------------|
|
|  E  E  E    E  E  E    E   E  E    E  E  E
|---------------------|----------------------|
|---------------------|----------------------|
|--9--9--9----9--9--9-|--9---9--9----9--9--9-|
|-10-10-10---10-10-10-|-10--10-10---10-10-10-|
|--8--8--8----8--8--8-|--8---8--8----8--8--8-|
|---------------------|----------------------|


  Gtr I
   W                    +W
|---------------------|----------------------|
|---------------------|----------------------|
|---------------------|----------------------|
|--9------------------|-(9)------------------|
|---------------------|----------------------|
|--5------------------|-(5)------------------|
|
| Gtr II
|  E  E  E    E  E  E    E   E  E    E  E  E
|---------------------|----------------------|
|---------------------|----------------------|
|--9--9--9----9--9--9-|-10--10-10---10-10-10-|
|-10-10-10---10-10-10-|-10--10-10---10-10-10-|
|-10-10-10---10-10-10-|-10--10-10---10-10-10-|
|---------------------|----------------------|
|
| Gtr III
|  W                     W
|---------------------|----------------------|
|-17------------------|-18-------------------|
|---------------------|----------------------|
|-14------------------|-15-------------------|
|---------------------|----------------------|
|---------------------|----------------------|


   H        +H              H        +E
|------------------------|------------------------|
|------------------------|------------------------|
|--7--------(7)----------|--5--------(5)----------|
|------------------------|------------------------|
|------------------------|------------------------|
|--5--------(5)----------|--5--------(5)----------|
|
|  E  E  E       E  E  E    E  E  E       E  E  E
|------------------------|------------------------|
|------------------------|------------------------|
|--7--7--7-------7--7--7-|--0--0--0-------0--0--0-|
|-10-10-10------10-10-10-|--9--9--9-------9--9--9-|
|-10-10-10------10-10-10-|-10-10-10------10-10-10-|
|------------------------|------------------------|
|
|  W                        W
|------------------------|------------------------|
|-15---------------------|-13---------------------|
|------------------------|------------------------|
|-12---------------------|-10---------------------|
|------------------------|------------------------|
|------------------------|------------------------|


  Gtr I
   W          +W           +W
|----------------------------------|
|----------------------------------|
|----------------------------------|
|--3----------(3)----------(3)-----|
|--3----------(3)----------(3)-----|
|--3----------(3)----------(3)-----|
|
| Gtr II
|  W          +W           +W
|----------------------------------|
|-17---------(17)---------(17)\----|
|----------------------------------|
|----------------------------------|
|----------------------------------|
|----------------------------------|


  Gtr I
   E  E  E  E  E  E  E  E    E  E  E  E  E  E  E  E
|-------------------------|-------------------------|
|-------------------------|-------------------------|
|-------------------------|-------------------------|
|-10-10-10-10-10-10-10-10-|-10-10-10-10-10-10-10-10-|
|--7--7--7--7--7--7--7--7-|--7--7--7--7--7--7--7--7-|
|--7--7--7--7--7--7--7--7-|--7--7--7--7--7--7--7--7-|
|
| Gtr II
|  E  E  E  E  E  E  E  E    E  E  E  E  E  E  E  E
|-------------------12-12-|-12-12-12-12-------------|
|-13-13-13-12-12-12-------|-------------13-13-12-12-|
|-------------------------|-------------------------|
|-------------------------|-------------------------|
|-------------------------|-------------------------|
|-------------------------|-------------------------|


   E  E  E  E  E  E  E  E    E  E  E  E  E  E  E  E
|-------------------------|-------------------------|
|-------------------------|-------------------------|
|-------------------------|-------------------------|
|-14-14-14-14-14-14-14-14-|-14-14-14-14-14-14-14-14-|
|-10-10-10-10-10-10-10-10-|-10-10-10-10-10-10-10-10-|
|-10-10-10-10-10-10-10-10-|-10-10-10-10-10-10-10-10-|
|
|  E  E  E  E  E  E  E  E    E  E  E  E  E  E  E  E
|-------------------12-12-|-12-12-12-12-------------|
|-13-13-13-12-12-12-------|-------------13-13-12-12-|
|-------------------------|-------------------------|
|-------------------------|-------------------------|
|-------------------------|-------------------------|
|-------------------------|-------------------------|


  Gtr I
   E  E  E  E  E  E  E  E    E  E  E  E  E  E  E  E
|-------------------------|-------------------------|
|-------------------------|-------------------------|
|-------------------------|-------------------------|
|--5--5--5--5--5--5--5--5-|--5--5--5--5--5--5--5--5-|
|--3--3--3--3--3--3--3--3-|--3--3--3--3--3--3--3--3-|
|--3--3--3--3--3--3--3--3-|--3--3--3--3--3--3--3--3-|
|
| Gtr II
|  E  E  E  E  E  E  E  E    E  E  E  E  E  E  E  E
|-------------------15-15-|-15-15-15-15-13-13-12-12-|
|-13-13-13-12-12-12-------|-------------------------|
|-------------------------|-------------------------|
|-------------------------|-------------------------|
|-------------------------|-------------------------|
|-------------------------|-------------------------|


   E  E  E  E  E  E  E  E    E  E  E  E  E  E  E  E
|-------------------------|-------------------------|
|-------------------------|-------------------------|
|-------------------------|-------------------------|
|--5--5--5--5--5--5--5--5-|--5--5--5--5--5--5--5--5-|
|--7--7--7--7--7--7--8--8-|--8--8--8--8--5--5--5--5-|
|--5--5--5--5--5--5--5--5-|--5--5--5--5--5--5--5--5-|
|
|  E  E  E  E  E  E  E  E    E  E  E  E  E  E  E  E
|-------------------15-15-|-15-15-15-15-13-13-12-12-|
|-13-13-13-12-12-12-------|-------------------------|
|-------------------------|-------------------------|
|-------------------------|-------------------------|
|-------------------------|-------------------------|
|-------------------------|-------------------------|


  Gtr I
   E  E  E  E  E  E  E  E    E  E  E  E  E  E  E  E
|-------------------------|-------------------------|
|-------------------------|-------------------------|
|-------------------------|-------------------------|
|-10-10-10-10-10-10-10-10-|-10-10-10-10-10-10-10-10-|
|--7--7--7--7--7--7--7--7-|--7--7--7--7--7--7--7--7-|
|--7--7--7--7--7--7--7--7-|--7--7--7--7--7--7--7--7-|
|
| Gtr II
|  E  E  E  E  E  E  E  E    E  E  E  E  E  E  E  E
|--0--0--0--0--0--0--0--0-|--0--0--0--0-------------|
|-10-10-10-12-12-12-13-13-|-13-15-15-15-10p=8-10p=8-|
|-------------------------|-------------------------|
|-------------------------|-------------------------|
|-------------------------|-------------------------|
|-------------------------|-------------------------|


   E  E  E  E  E  E  E  E    E  E  E  E  E  E  E  E
|-------------------------|-------------------------|
|-------------------------|-------------------------|
|-------------------------|-------------------------|
|-14-14-14-14-14-14-14-14-|-14-14-14-14-14-14-14-14-|
|-10-10-10-10-10-10-10-10-|-10-10-10-10-10-10-10-10-|
|-10-10-10-10-10-10-10-10-|-10-10-10-10-10-10-10-10-|
|
|  E  E  E  E  E  E  E  E    E  E  E  E  E  E  E  E
|--0--0--0--0--0--0--0--0-|--0--0--0--0-------------|
|-10-10-10-12-12-12-13-13-|-13-15-15-15-10p=8-10p=8-|
|-------------------------|-------------------------|
|-------------------------|-------------------------|
|-------------------------|-------------------------|
|-------------------------|-------------------------|


  Gtr I
   PM|       PM|           PM|           PM|
   E E E +E  E E  E +E     E E   E  +E   E  E  E  +E
|-----------------------|-----------------------------|
|-----------------------|-----------------------------|
|-----------------------|-----------------------------|
|--5-5-5-(5)-5-5--5-(5)-|--5-5---5--(5)--5--5--5--(5)-|
|--3-3-3-(3)-3-3--3-(3)-|--3-3---3--(3)--3--3--3--(3)-|
|--3-3-3-(3)-3-3--3-(3)-|--3-3---3--(3)--3--3--3--(3)-|
|
| Gtr II
|  Q      Q       H        Q    +Q       E  E  E  +E
|-----------------------|-----------------------------|
|-17-----15------13-----|-15---(15)-----12-13-12-(12)-|
|-----------------------|-----------------------------|
|-----------------------|-----------------------------|
|-----------------------|-----------------------------|
|-----------------------|-----------------------------|


   E  E  E  E  E  E  E  E    E  E  E  E  E  E  E  E
|-------------------------|-------------------------|
|-------------------------|-------------------------|
|-------------------------|-------------------------|
|--5--5--5--5--5--5--5--5-|--5--5--5--5--5--5--5--5-|
|--7--7--7--7--7--7--8--8-|--8--8--8--8--5--5--5--5-|
|--5--5--5--5--5--5--5--5-|--5--5--5--5--5--5--5--5-|
|
|  E  E  E  E  E  E  E  E    E  E  E  E  E  E  E  E
|-------------------------|-------------------------|
|-17-17-17-17-17-17-18-18-|-18-18-18-18-15-15-15-15-|
|-------------------------|-------------------------|
|-14-14-14-14-14-14-15-15-|-15-15-15-15-12-12-12-12-|
|-------------------------|-------------------------|
|-------------------------|-------------------------|


  Gtr I
   W
|-----------||-------------------------------------|
|-----------||o------------------------------------|
|-----------||-------------------------------------|
|--0--------||-------------------------------------|
|--0--------||o------------------------------------|
|--0--------||-------------------------------------|
|
| Gtr II
|  W
|-----------||-------------------------------------|
|-13--------||o------------------------------------|
|-----------||-------------------------------------|
|-10--------||-------------------------------------|
|-----------||o------------------------------------|
|-----------||-------------------------------------|
|
|               Gtr IV
|                W     Q    Q   +Q   Q   W    Q
|-----------||-------------------------------------|
|-----------||o------------------------------------|
|-----------||--12-----9---10--(10)--9--12----9----|
|-----------||--10----------------------14---------|
|-----------||o------------------------------------|
|-----------||---7----------------------10---------|


|---------------------------|------------------------|-----------||----|
|---------------------------|------------------------|----------o||----|
|---------------------------|------------------------|-----------||----|
|---------------------------|------------------------|-----------||----|
|---------------------------|------------------------|----------o||----|
|---------------------------|------------------------|-----------||----|
|
|---------------------------|------------------------|-----------||----|
|---------------------------|------------------------|----------o||----|
|---------------------------|------------------------|-----------||----|
|---------------------------|------------------------|-----------||----|
|---------------------------|------------------------|----------o||----|
|---------------------------|------------------------|-----------||----|
|
|  Q   +Q   Q  W    Q    Q    +Q   Q  W        Q  Q    Q    Q
|---------------------------|------------------------|-----------||----|
|--------------5----5----6--|-(6)--5--3--------------|----------o||----|
|-10--(10)--9--5------------|---------5--------4--5--|-4----5----||----|
|---------------------------|------------------------|-----------||----|
|---------------------------|------------------------|----------o||----|
|--------------3------------|---------5--------------|-----------||----|


  Gtr IV
   W         Q   Q   +Q   Q            W         Q   Q   +Q   Q
|----------------------------------|-----------------------------|
|----------------------------------|-----------------------------|
|-12---------9--10--(10)--9--------|--12---------9--10--(10)--9--|
|-10-------------------------------|--14-------------------------|
|----------------------------------|-----------------------------|
|--7-------------------------------|--10-------------------------|
|
| Gtr V
|  W                                   W
|----------------------------------|-----------------------------|
|----------------------------------|-<12>------------------------|
|----------------------------------|-----------------------------|
|-<7>------------------------------|-----------------------------|
|----------------------------------|-----------------------------|
|----------------------------------|-----------------------------|


   W         Q  Q  +Q   Q    W           Q  Q  Q  Q
|--------------------------|---------------------------|
|--5---------5--6--(6)--5--|-3-------------------------|
|--5-----------------------|-5-----------4--5--4--5----|
|--------------------------|---------------------------|
|--------------------------|---------------------------|
|--3-----------------------|-5-------------------------|
|
|  W                            W
|--------------------------|---------------------------|
|--------------------------|---------------------------|
|-<5>----------------------|---<7>---------------------|
|--------------------------|---------------------------|
|--------------------------|---------------------------|
|--------------------------|---------------------------|


  Gtr IV
   W                Q   Q   +Q    Q      W                Q   Q   +Q    Q
|------------------------------------|-------------------------------------|
|------------------------------------|-------------------------------------|
|-12----------------9--10--(10)---9--|--12----------------9--10--(10)---9--|
|-10---------------------------------|--14---------------------------------|
|------------------------------------|-------------------------------------|
|--7---------------------------------|--10---------------------------------|
|
| Gtr II
|  Q    Q   Q   Q   Q   Q    Q    Q      Q    Q   Q   Q   Q   Q    Q    Q
|--0----0---0---0---0---0----0----0--|---0----0---0---0---0---0----0----0--|
|-10---10--10--10--10--10---10---10--|--12---12--12--12--12--12---12---12--|
|------------------------------------|-------------------------------------|
|------------------------------------|-------------------------------------|
|------------------------------------|-------------------------------------|
|------------------------------------|-------------------------------------|
|
| Gtr V
|  W                                     W
|------------------------------------|-------------------------------------|
|------------------------------------|-<12>--------------------------------|
|------------------------------------|-------------------------------------|
|-<7>--------------------------------|-------------------------------------|
|------------------------------------|-------------------------------------|
|------------------------------------|-------------------------------------|


   W                Q   Q  +Q    Q     W                Q   Q   Q   Q
|-----------------------------------|------------------------------------|
|--5----------------5---6--(6)---5--|--3---------------------------------|
|--5--------------------------------|--5----------------4---5---4---5----|
|-----------------------------------|------------------------------------|
|-----------------------------------|------------------------------------|
|--3--------------------------------|--5---------------------------------|
|
|  Q    Q   Q   Q   Q   Q   Q    Q     Q    Q   Q   Q   Q   Q   Q   Q
|--0----0---0---0---0---0---0----0--|--0----0---0---0---0---0---0---0----|
|-13---13--13--13--13--13--13---13--|-15---15--15--15--15--15--15--15----|
|-----------------------------------|------------------------------------|
|-----------------------------------|------------------------------------|
|-----------------------------------|------------------------------------|
|-----------------------------------|------------------------------------|
|
|  W                                   W
|-----------------------------------|------------------------------------|
|-----------------------------------|------------------------------------|
|-<5>-------------------------------|-<7>--------------------------------|
|-----------------------------------|------------------------------------|
|-----------------------------------|------------------------------------|
|-----------------------------------|------------------------------------|


  Gtr I
   W
|--------|
|--------|
|--------|
|--------|
|--------|
|-10\----|
|
| Gtr II
|  W
|--0-----|
|-17\----|
|--------|
|--------|
|--------|
|--------|


  Gtr I
   E  E  E  E  E  E  E  E    E  E  E  E  E  E  E  E
|-------------------------|-------------------------|
|-------------------------|-------------------------|
|-------------------------|-------------------------|
|-10-10-10-10-10-10-10-10-|-10-10-10-10-10-10-10-10-|
|--7--7--7--7--7--7--7--7-|--7--7--7--7--7--7--7--7-|
|--7--7--7--7--7--7--7--7-|--7--7--7--7--7--7--7--7-|
|
| Gtr II
|  E  E  E  E  E  E  E  E    E  E  E  E  E  E  E  E
|-------------------12-12-|-12-12-12-12-------------|
|-13-13-13-12-12-12-------|-------------13-13-12-12-|
|-------------------------|-------------------------|
|-------------------------|-------------------------|
|-------------------------|-------------------------|
|-------------------------|-------------------------|


   E  E  E  E  E  E  E  E    E  E  E  E  E  E  E  E
|-------------------------|-------------------------|
|-------------------------|-------------------------|
|-------------------------|-------------------------|
|-14-14-14-14-14-14-14-14-|-14-14-14-14-14-14-14-14-|
|-10-10-10-10-10-10-10-10-|-10-10-10-10-10-10-10-10-|
|-10-10-10-10-10-10-10-10-|-10-10-10-10-10-10-10-10-|
|
|  E  E  E  E  E  E  E  E    E  E  E  E  E  E  E  E
|-------------------12-12-|-12-12-12-12-------------|
|-13-13-13-12-12-12-------|-------------13-13-12-12-|
|-------------------------|-------------------------|
|-------------------------|-------------------------|
|-------------------------|-------------------------|
|-------------------------|-------------------------|


  Gtr I
   E  E  E  E  E  E  E  E    E  E  E  E  E  E  E  E
|-------------------------|-------------------------|
|-------------------------|-------------------------|
|-------------------------|-------------------------|
|--5--5--5--5--5--5--5--5-|--5--5--5--5--5--5--5--5-|
|--3--3--3--3--3--3--3--3-|--3--3--3--3--3--3--3--3-|
|--3--3--3--3--3--3--3--3-|--3--3--3--3--3--3--3--3-|
|
| Gtr II
|  E  E  E  E  E  E  E  E    E  E  E  E  E  E  E  E
|-------------------15-15-|-15-15-15-15-13-13-12-12-|
|-13-13-13-12-12-12-------|-------------------------|
|-------------------------|-------------------------|
|-------------------------|-------------------------|
|-------------------------|-------------------------|
|-------------------------|-------------------------|


   E  E  E  E  E  E  E  E    E  E  E  E  E  E  E  E
|-------------------------|-------------------------|
|-------------------------|-------------------------|
|-------------------------|-------------------------|
|--5--5--5--5--5--5--5--5-|--5--5--5--5--5--5--5--5-|
|--7--7--7--7--7--7--8--8-|--8--8--8--8--5--5--5--5-|
|--5--5--5--5--5--5--5--5-|--5--5--5--5--5--5--5--5-|
|
|  E  E  E  E  E  E  E  E    E  E  E  E  E  E  E  E
|-------------------15-15-|-15-15-15-15-13-13-12-12-|
|-13-13-13-12-12-12-------|-------------------------|
|-------------------------|-------------------------|
|-------------------------|-------------------------|
|-------------------------|-------------------------|
|-------------------------|-------------------------|


  Gtr I
   E  E  E  E  E  E  E  E    E  E  E  E  E  E  E  E
|-------------------------|-------------------------|
|-------------------------|-------------------------|
|-------------------------|-------------------------|
|-10-10-10-10-10-10-10-10-|-10-10-10-10-10-10-10-10-|
|--7--7--7--7--7--7--7--7-|--7--7--7--7--7--7--7--7-|
|--7--7--7--7--7--7--7--7-|--7--7--7--7--7--7--7--7-|
|
| Gtr II
|  E  E  E  E  E  E  E  E    E  E  E  E  E  E  E  E
|--0--0--0--0--0--0--0--0-|--0--0--0--0-------------|
|-10-10-10-12-12-12-13-13-|-13-15-15-15-10p=8-10p=8-|
|-------------------------|-------------------------|
|-------------------------|-------------------------|
|-------------------------|-------------------------|
|-------------------------|-------------------------|


   E  E  E  E  E  E  E  E    E  E  E  E  E  E  E  E
|-------------------------|-------------------------|
|-------------------------|-------------------------|
|-------------------------|-------------------------|
|-14-14-14-14-14-14-14-14-|-14-14-14-14-14-14-14-14-|
|-10-10-10-10-10-10-10-10-|-10-10-10-10-10-10-10-10-|
|-10-10-10-10-10-10-10-10-|-10-10-10-10-10-10-10-10-|
|
|  E  E  E  E  E  E  E  E    E  E  E  E  E  E  E  E
|--0--0--0--0--0--0--0--0-|--0--0--0--0-------------|
|-10-10-10-12-12-12-13-13-|-13-15-15-15-10p=8-10p=8-|
|-------------------------|-------------------------|
|-------------------------|-------------------------|
|-------------------------|-------------------------|
|-------------------------|-------------------------|


  Gtr I
   PM|         PM|          PM|           PM|
   E E  E +E   E E E +E     E E   E  +E   E  E  E  +E
|------------------------|-----------------------------|
|------------------------|-----------------------------|
|------------------------|-----------------------------|
|--5-5--5-(5)--5-5-5-(5)-|--5-5---5--(5)--5--5--5--(5)-|
|--3-3--3-(3)--3-3-3-(3)-|--3-3---3--(3)--3--3--3--(3)-|
|--3-3--3-(3)--3-3-3-(3)-|--3-3---3--(3)--3--3--3--(3)-|
|
| Gtr II
|  Q    Q      H            Q    +Q       E  E  E  +E
|------------------------|-----------------------------|
|-17---15-----13---------|-15---(15)-----12-13-12-(12)-|
|------------------------|-----------------------------|
|------------------------|-----------------------------|
|------------------------|-----------------------------|
|------------------------|-----------------------------|


   E  E  E  E  E  E  E  E    E  E  E  E  E  E  E  E
|-------------------------|-------------------------|
|-------------------------|-------------------------|
|-------------------------|-------------------------|
|--5--5--5--5--5--5--5--5-|--5--5--5--5--5--5--5--5-|
|--7--7--7--7--7--7--8--8-|--8--8--8--8--5--5--5--5-|
|--5--5--5--5--5--5--5--5-|--5--5--5--5--5--5--5--5-|
|
|  E  E  E  E  E  E  E  E    E  E  E  E  E  E  E  E
|-------------------------|-------------------------|
|-17-17-17-17-17-17-18-18-|-18-18-18-18-15-15-15-15-|
|-------------------------|-------------------------|
|-14-14-14-14-14-14-15-15-|-15-15-15-15-12-12-12-12-|
|-------------------------|-------------------------|
|-------------------------|-------------------------|


  Gtr II
   W          +W               W                   +W
|----------|----------------|-------------------|----------*|
|-13-------|-(13)-----------|-------------------|----------*|
|----------|----------------|-<5>---------------|-(<5>)----*|
|-10-------|-(10)-----------|-<5>---------------|-(<5>)----*|
|----------|----------------|-------------------|----------*|
|----------|----------------|-------------------|----------*|
|
| Gtr I
|  W          +W               W                   +W
|----------|----------------|-------------------|----------*|
|----------|----------------|-------------------|----------*|
|----------|----------------|--5----------------|--(5)-----*|
|--0-------|--(0)-----------|--5----------------|--(5)-----*|
|--0-------|--(0)-----------|--3----------------|--(3)-----*|
|--0-------|--(0)-----------|--3----------------|--(3)-----*|
|
| Gtr III
|              H      H        H   Q  Q    H       +W
|----------|----------------|-------------------|----------*|
|----------|--20-----18-----|-17--18-17---13----|-(13)-----*|
|----------|----------------|-------------------|----------*|
|----------|----------------|-------------------|----------*|
|----------|----------------|-------------------|----------*|
|----------|----------------|-------------------|----------*|



Duration Legend
---------------
W - whole; H - half; Q - quarter; E - 8th; S - 16th; T - 32nd; X - 64th; a - acciaccatura
+ - note tied to previous; . - note dotted; .. - note double dotted
Uncapitalized letters represent notes that are staccato (1/2 duration)
Irregular groupings are notated above the duration line
Duration letters will always appear directly above the note/fret number it represents the
duration for.  Duration letters with no fret number below them represent rests.  Multi-
bar rests are notated in the form Wxn, where n is the number of bars to rest for.  Low
melody durations appear below the staff

Tablature Legend
----------------
 h   - hammer-on
 p   - pull-off
 b   - bend
 pb  - pre-bend
 r   - bend release (if no number after the r, then release immediately)
 /\  - slide into or out of (from/to "nowhere")
 s   - legato slide
 S   - shift slide
 - natural harmonic
[n]  - artificial harmonic
n(n) - tapped harmonic
 ~   - vibrato
 tr  - trill
 T   - tap
 TP  - trem. picking
 PM  - palm muting
\n/  - tremolo bar dip; n = amount to dip
 \n  - tremolo bar down
 n/  - tremolo bar up
/n\  - tremolo bar inverted dip
 =   - hold bend; also acts as connecting device for hammers/pulls
 <> - volume swell (louder/softer)
 x   - on rhythm slash represents muted slash
 o   - on rhythm slash represents single note slash

Misc Legend
-----------
 |  - bar
||  - double bar
||o - repeat start
o|| - repeat end
*|  - double bar (ending)
 :  - bar (freetime)
 $  - Segno
 &  - Coda
Tempo markers -  = BPM(8/16=s8/s16), where s8 = swing 8ths, s16 = swing 16ths





Comments


Popular Underoath tabs & chords
Act Of Depression Bass Tabs
Desperate Times, Desperate Measures Bass Tabs
And I Dreamt Of You 4 Tabs
Casting Such A Thin Shadow Tabs
I've Got Ten Friends And A Crowbar That Says You Ain't Gonna Do Jack Tabs
In Regards To Myself 1 Tabs
The Created Void Tabs
To Whom It May Concern Tabs
Vacant Mouth Tabs
Writing On The Walls 1 Tabs


Song lyrics



↑ Back to top | Tablatures and chords are parodies/interpretations of the original songs. You may use it for private study, scholarship, research or language learning purposes only
© 2014 AZChords.com Contact us | Privacy policy | DMCA | Add/correct tabs | Request tabs | Top 50 tabs