» » »

There Could Be Nothing After This Tabs (ver.1)

Artists:  A B C D E F G H I J K L M N O P Q R S T U V W X Y Z # 

There Could Be Nothing After This Tabs (ver.1)

Underoath
Rating:
0/5 (0 votes)

Hard to play? Try these video lessons and learn fast.
                this is just parts of the song. this should give someone an idea about how to play the 
so they can maybe finish the rest.

e :------------------------------------------------------|
B :------------------------------------------------------|
G :--7---9---12---10-------------------------------------|
D :--x---x----x---x--------------------------------------|
A :--5---7---10---8--------------------------------------|
D :------------------------------------------------------|


e :----------------------------------------------------------------|
B :----------------------------------------------------------------|
G :----------------------------------------------------------------|
D :--8/00--8/000--8/00-----7---------00-8/000-8/00---7-------------|
A :--8/00--8/000--8/00------8-0-5/7--00-8/000-8/00-----8-0-5/7-----|
D :--8/00--8/000--8/00--\8---------7-00-8/000-8/00-\8---------7----|

i havent figured out what guitar 2 plays here. it sounds like the same thing as guitar
but its higher.

e :---------------------------------------------------------------|
B :-----------------------------------------------------6---------|
G :-----------------------------------------------------9---------|
D :--8/00--8/000--8/00----7---------00-8/000-8/00-8/000-----------|
A :--8/00--8/000--8/00-----8-0-5/7--00-8/000-8/00-8/000-----------|
D :--8/00--8/000--8/00--8---------7-00-8/000-8/00-8/000-----------|


e :-----------------------------------------------------------|
B :--------------------------6-------------------------6------|
G :--------------------------9-------------------------9------|
D :--8/00--8/000--8/00--8/000--8/00--8/000--8/00--8/000-------|
A :--8/00--8/000--8/00--8/000--8/00--8/000--8/00--8/000-------|
D :--8/00--8/000--8/00--8/000--8/00--8/000--8/00--8/000-------|

e :--1\13-1\13-1\13-1\13-1\13-1\13------------------------|
B :-------------------------------------------------------|
G :----------------------------------12----10-------------|
D :----------------------------------x-----x--------------|
A :----------------------------------10----8--------------|
D :-------------------------------------------------------|

e :----------------------------------------------------------|
B :----6-----6--------------6------6-------------------------|
G :----9-----9--------------9------9-------------------------|
D :--0---5-7----5h7--3h5--0----5-7---5h7--3b-----------------|
A :--0---5-7----5h7--3h5--0----5-7---5h7--3b-----------------|
D :--0---5-7----5h7--3h5--0----5-7---5h7--3b-----------------|


e :------------------------------------------------------|
B :------------------------------------------------------|
G :--9----5----12----------------------------------------|
D :--x----x-----x----------------------------------------|
A :--7----3----10----------------------------------------|
D :------------------------------------------------------|


e :-------------------------------------------------------|
B :-------------------------------------------------------|
G :-------------------------------------------------------|
D :--0--00--0-0---00000--0-0---0--00--0-0---00000--0-0-0~-|
A :--0--00--0-0---00000--0-0---0--00--0-0---00000--0-0-0~-|
D :--0--00--0-0---00000--0-0---0--00--0-0---00000--0-0-0~-|
    ^^^that part repeats, but i have no clue what guitar 2 is playing.

e :-------------------------------------------------------|
B :----6--------------------------------------------------|
G :----9b-------------------------------------------------|
D :--0----00-00-------------------------------------------|
A :--0----00-00-------------------------------------------|
D :--0----00-00-------------------------------------------|

hold each chord/note here
e :-----------------------------15~---12~------------------|
B :--------------------------------------13~---------------|
G :---10----9------10-----7-----------------14~--12~-------|
D :---x-----x------x------x--------------------------------|
A :---8-----7------8------5--------------------------------|
D :--------------------------------------------------------|


e :------------------------------------------------------|
B :------------------------------------------------------|
G :--2--5---------2--5-----------------------------------|
D :--2--5--5-8----2--5--5--555--8888/--------------------|
A :--0--3--5-8----0--3--5--555--8888/--------------------|
D :--------5-8----------5--555--8888/--------------------|


repeat until the end. end song on open d.
e :------------------------------------------------------|
B :------------------------------------------------------|
G :---------5555--------5555---2-------------------------|
D :--0~-----5555-0~-----5555---2---5---------------------|
A :--0~-----3333-0~-----3333---0---5----/7--3~-----------|
D :--0~----------0~----------------5---3-----------------|
            
Hard to play? Try these video lessons and learn fast. | Correct




comments powered by Disqus
↑ Back to top | Tablatures and chords are parodies/interpretations of the original songs. You may use it for private study, scholarship, research or language learning purposes only