» » »

Changing Of Times Bass tabs (ver.1)

Artists:  A B C D E F G H I J K L M N O P Q R S T U V W X Y Z # 

Changing Of Times Bass tabs (ver.1)

Underoath
Rating:
0/5 (0 votes)

Hard to play? Try these video lessons and learn fast.
                			   Changing of Times - Underoath

Isnt all correct. 

Tuning: Drop D

Intro : (Do this 8x)
G|-------------------------------------------------------------------|
D|-------------------------------------------------------------------|
A|-0~-0-0~-----------------------------------------------------------|
E|---------7~--7-7~--------------------------------------------------|

When distortion comes in : (4x)
G|-------------------------------------------------------------------|
D|--------------------------55---------------------------------------|
A|--------------------------xx---------------------------------------|
E|-77777--77777-7777-333333333---------------------------------------|

Then with the switch between clean and distorted...
G|-------------------------------------------------------------------|
D|------------55-----------55----------------------------------------|
A|------------xx-----------xx----------------------------------------|
E|-3~--333333333-3~-333333333--3~------------------------------------|

The hardcore part!
G|-------------------------------------------------------------------|
D|-------------------------------------------------------------------|
A|-------------------------------------------------------------------|
E|0-0-000-0-0-000-0-0-000-0-0-000-0-0-000-0-0-000-0-0-000-0-0-000----|

The palm-muted bridge! (There's no bass here, but what the hell...)
G|-------------------------------------------------------------------|
D|-------------------------------------------------------------------|
A|---------------------4--4--4--4--44--------------------------------|
E|-3203203203203200--32-32-32-32-32----------------------------------|

Do this part 3x
G|-------------------------------------------------------------------|
D|-------------------------------------------------------------------|
A|-7~-8~-7~-8~-8888-10101010-12121212-10101010-----------------------|
E|-------------------------------------------------------------------|

Then this...
G|-------------------------------------------------------------------|
D|-------------------------------------------------------------------|
A|-7~-8~-7~-8~-8888-10101010-12121212~-------------------------------|
E|-------------------------------------------------------------------|

Do this part 4x                      And this 4x as well
G|---------------------------------|---------------------------------|
D|---------------------------------|---------------------------------|
A|5-5-5-5-5-5-5-5-5-5-5-5-5-5-5-5--|---5/3~-5~-3~-5~-----------------|
E|---------------------------------|---------------------------------|

Then... 12x (With the hammer-on to four, do it with the guitarist)
G|-------------------------------------------------------------------|
D|-------------------------------------------------------------------|
A|---------------0h4-------------------------------------------------|
E|-00-000-000-0------------------------------------------------------|

Bass riff, do this as many times as needed.
G|-------------------------------------------------------------------|
D|-------------------------------------------------------------------|
A|--77777777 1212121212121212 88888888-------------------------------|
E|-------------------------------------------------------------------|

Do this part three times.
G|-------------------------------------------------------------------|
D|-------------------------------------------------------------------|
A|-8~-8~-8~-8~-7~-7~-7~-7~-------------------------------------------|
E|-------------------------------------------------------------------|

Outro... thank goodness?
G|-------------------------------------------------------------------|
D|-------------------------------------------------------------------|
A|-8\7-88/1010-7-----------------------------------------------------|
E|-------------------------------------------------------------------|

| /  slide up
| \  slide down
| h  hammer-on
| p  pull-off
| ~  vibrato
| +  harmonic
| x  Mute note
            
Hard to play? Try these video lessons and learn fast. | Correct




comments powered by Disqus
↑ Back to top | Tablatures and chords are parodies/interpretations of the original songs. You may use it for private study, scholarship, research or language learning purposes only