» » »

Underoath, Short Of Daybreak Tabs (ver.1)

Artists:  A B C D E F G H I J K L M N O P Q R S T U V W X Y Z # 

Short Of Daybreak Tabs (ver.1)

Underoath Tabs
 Rating:
4/5 (4 votes)
Short Of Daybreak lessons Tabs too difficult? Try these video lessons and learn fast
                D -0--------0-----------------------------------1-1-1-1-1-1-0
a -0-5/7/8--0--5/7/8--7--8(x16)-7-7-7-7-7-7-7-7-1-1-1-1-1-1-0
d ----------------------------------------------------------- x2
g ---7/9/10----7/9/10-9--10(x16)9-9-9-9-9-9-9-9--------------

D -0-0-0-3-3h1-   x4

D -3~-|-3-1-0-3-1-0-
a ----|-3-1-0-3-1-0-   x8

D -7-7--7-7-5-5--5-5-3-3--3-3-5-5--5-5-
a -7-7--7-7-5-5--5-5-3-3--3-3-5-5--5-5-   x6
d -9-9--9-9-7-7--7-7-5-5--5-5-7-7--7-7-
 pm...      ...      ...      ...

D -0--0-0-0-0--0-0-0-0----------------0-0-0-0--0-0-0-0
a -0-------------------8-7-8--10-8--7-----------------
d ----------------------------------------------------
g --------------------10-9-10-12-10-9-----------------

D
a -8--7-8--12-10-8-0-0-0-0--0-0-0-0-
d ----------------------------------
g -10-9-10-14-12-10-----------------

D ----------------0-0-0-0--0-0-0-0-------------0-0-0-0- Not sure
a ----------------0-0-0-0--0-0-0-0-----------8-0-0-0-0- about this
d ----10-8-10-8-7------------------8-7-5-7-5----------- one.
g -10--------------------------------------------------
            
Submit corrections

comments powered by Disqus
↑ Back to top | Underoath Tabs for Short Of Daybreak. Lyrics for acoustic guitar and electric guitar. Tablatures and chords are parodies/interpretations of the original songs. You may use it for private study, scholarship, research or language learning purposes only