» » »

Reinventing Your Exit Tabs (ver.1)

Artists:  A B C D E F G H I J K L M N O P Q R S T U V W X Y Z # 

Reinventing Your Exit Tabs (ver.1)

Underoath
Rating:
0/5 (0 votes)

Hard to play? Try these video lessons and learn fast.
                
Ok,it took me a while to figure out this tab
and im shure is at least 100% right.

/=Slide
.=Palm Mute
~=let It Ring
h=hold

Drop D 
(example)
e|------------------------|
B|------------------------|
G|------------------------|
D|------------------------|
A|------------------------|
D|------------------------|



Intro Guitar 1
e|------------------------|
B|-0---0---0-8~-----------|
G|---5---5-----5----------|
D|------------------------|
A|------------------------|
D|------------------------|


Intro/chorus

Guitar 1(Invincible!)
e|---------------------------------------------------------|
B|---------------------------------------------------------|
G|---------------------------------------------------------|
D|-7-7-7-7-7-7--10-10-10-10-10-10--3-3-3-3-3-3--5-5-5-5-5-5|X2
A|-7-7-7-7-7-7--10-10-10-10-10-10--3-3-3-3-3-3--5-5-5-5-5-5|
D|-7-7-7-7-7-7--10-10-10-10-10-10--3-3-3-3-3-3--5-5-5-5-5-5|

Guitar 2
e|------------------------|
B|------------------------|
G|-5----------------------|
D|-x----------------------|as much as needed
A|-3----------------------|
D|------------------------|


verse(its starts again)
Guitar 1
e|------------------------|
B|------------------------|
G|------------------------|
D|-7-7-7~-----------------|
A|-7-7-7~-----------------|
D|-7-7-7~-----------------|
   . . 

Guitar 2                      Guitar 1(Stop saying)                        
e|------------------------|   e|--------------------|               
B|------------------------|   B|--------------------|               
G|---5~---4~--------------|   G|--------------------|       
D|---3~---5~--------------|   D|-7-7-7~-------------|            
A|------------------------|   A|-7-7-7~-------------|    
D|-3~--5~-----------------|   D|-7-7-7~-------------|          
                                 . .   

Guiatar 2
e|------------------------|
B|------------------------|
G|---5~---4~--------------|
D|---3~---5~--------------|
A|------------------------|
D|-3~---5~----------------|



Guitar 1(This round and round your,un)
e|---------------------------------------------------|
B|---------------------------------------------------|
G|---------------------------------------------------|
D|-7-7-7-7-7-7--3-3-3-3-3-3--5-5-5-5-5-5--2-2-2-2-2-2|X2
A|-7-7-7-7-7-7--3-3-3-3-3-3--5-5-5-5-5-5--2-2-2-2-2-2|
D|-7-7-7-7-7-7--3-3-3-3-3-3--5-5-5-5-5-5--2-2-2-2-2-2|

Guitar 2
e|----------------------------------------|
B|-6-6-6-6--5-5-5-5-3--3-3-3-3--5-5-5-5---|
G|-5-5-5-5--5-5-5-5-5--5-5-5-5--5-5-5-5---|
D|-3-3-3-3--3-3-3-3-3--3-3-3-3--3-3-3-3---|X4
A|----------------------------------------|
D|----------------------------------------|


Pre chorus
Guitar 1&2(We all want to be)
e|-------------------------------------------------------------------------|
B|-------------------------------------------------------------------------|
G|-------------------------------------------------------------------------|
D|-3-3-3-3-3-3-3-3--7-7-7-7-7-7-7-7--5-5-5-5-5-5-5-5--3-3-3-3-3-3-3-3-3-3-3|
A|-3-3-3-3-3-3-3-3--7-7-7-7-7-7-7-7--5-5-5-5-5-5-5-5--3-3-3-3-3-3-3-3-3-3-3|
D|-3-3-3-3-3-3-3-3--7-7-7-7-7-7-7-7--5-5-5-5-5-5-5-5--3-3-3-3-3-3-3-3-3-3-3|
                                                      . .

 continued                                                    
e|----------------------------------------|
B|----------------------------------------|
G|----------------------------------------|
D|-7-7-7-7-7-7-7-7--5-5-5-5-5-5-5-5-------|
A|-7-7-7-7-7-7-7-7--5-5-5-5-5-5-5-5-------|
D|-7-7-7-7-7-7-7-7--5-5-5-5-5-5-5-5-------|

  Pre chorus 2
  Guitar 2
e|--------------------------------|
B|-5-5-5-5-5--6-6--5-5-5-5-5--6-6-|
G|-5-5-5-5-5--5-5--5-5-5-5-5--5-5-|
D|-3-3-3-3-3--3-3--3-3-3-3-3--3-3-|
A|--------------------------------|
D|--------------------------------|


Chorus

Guitar 1(This Is The Way I)
e|---------------------------------------------------------|
B|---------------------------------------------------------|
G|---------------------------------------------------------|
D|-7-7-7-7-7-7--10-10-10-10-10-10--3-3-3-3-3-3--5-5-5-5-5-5|X4
A|-7-7-7-7-7-7--10-10-10-10-10-10--3-3-3-3-3-3--5-5-5-5-5-5|
D|-7-7-7-7-7-7--10-10-10-10-10-10--3-3-3-3-3-3--5-5-5-5-5-5|

Guitar 2
e|------------------------|
B|------------------------|
G|-5----------------------|
D|-x----------------------|as much as needed
A|-3----------------------|
D|------------------------|



verse(its you and me)
Guitar 1
e|------------------------|
B|------------------------|
G|------------------------|
D|-7-7-7~-----------------|
A|-7-7-7~-----------------|
D|-7-7-7~-----------------|

Guitar 2
e|------------------------|
B|-------0----------------|
G|---5-----5---5----------|
D|-----3-----3------------|X2
A|-0----------------------|
D|------------------------|


Guitar 1(This Is Were We)
e|------------------------|
B|------------------------|
G|------------------------|
D|-7-7-7~-----------------|
A|-7-7-7~-----------------|
D|-7-7-7~-----------------|

Guitar 2(Numb Now)
e|------------------------|
B|-------0----------------|
G|---5-----5---5----------|
D|-----3-----3------------|X2
A|-0----------------------|
D|------------------------|


Guitar 1(You broke my heart)
e|---------------------------------------------------|
B|---------------------------------------------------|
G|---------------------------------------------------|
D|-7-7-7-7-7-7--3-3-3-3-3-3--5-5-5-5-5-5--2-2-2-2-2-2|X2
A|-7-7-7-7-7-7--3-3-3-3-3-3--5-5-5-5-5-5--2-2-2-2-2-2|
D|-7-7-7-7-7-7--3-3-3-3-3-3--5-5-5-5-5-5--2-2-2-2-2-2|

Guitar 2
e|----------------------------------------|
B|-6-6-6-6--5-5-5-5-3--3-3-3-3--5-5-5-5---|
G|-5-5-5-5--5-5-5-5-5--5-5-5-5--5-5-5-5---|
D|-3-3-3-3--3-3-3-3-3--3-3-3-3--3-3-3-3---|X4
A|----------------------------------------|
D|----------------------------------------|


Pre chorus
Guitar 1&2(We all want to be)
e|-------------------------------------------------------------------------|
B|-------------------------------------------------------------------------|
G|-------------------------------------------------------------------------|
D|-3-3-3-3-3-3-3-3--7-7-7-7-7-7-7-7--5-5-5-5-5-5-5-5--3-3-3-3-3-3-3-3-3-3-3|
A|-3-3-3-3-3-3-3-3--7-7-7-7-7-7-7-7--5-5-5-5-5-5-5-5--3-3-3-3-3-3-3-3-3-3-3|
D|-3-3-3-3-3-3-3-3--7-7-7-7-7-7-7-7--5-5-5-5-5-5-5-5--3-3-3-3-3-3-3-3-3-3-3|
                                                      . .

 continued                                                    
e|----------------------------------------|
B|----------------------------------------|
G|----------------------------------------|
D|-7-7-7-7-7-7-7-7--5-5-5-5-5-5-5-5-------|
A|-7-7-7-7-7-7-7-7--5-5-5-5-5-5-5-5-------|
D|-7-7-7-7-7-7-7-7--5-5-5-5-5-5-5-5-------|



CHORUS X4




Pre Bridge
Guitar 1
e|-------------------------------------------|
B|-------------------------------------------|
G|-------------------------------------------|
D|-7-7-7-7--7-7-7-7--7/1--3-3-3-3--5-5-5-5---|X2(at second time let the 
A|-7-7-7-7--7-7-7-7--7/1--3-3-3-3--5-5-5-5---|   Last 5 ring)
D|-7-7-7-7--7-7-7-7--7/1--3-3-3-3--5-5-5-5---|

Guitar 2
e|------------------------|
B|------------------------|
G|-9----------------------|
D|-x----------------------|As much as needed
A|-7----------------------|
D|------------------------|

Bridge
Guitar 2
e|------------------------|
B|-------0----------------|
G|---5-----5---5----------|
D|-----3-----3------------|X24
A|-0----------------------|
D|------------------------|


Guitar 1
e|-------------------------------|
B|-------------------------------|
G|-------------------------------|
D|-7-7-7--10-10-10--3-3-3--5-5-5-|X6
A|-7-7-7--10-10-10--3-3-3--5-5-5-|
D|-7-7-7--10-10-10--3-3-3--5-5-5-|



Chorus

Guitar 1(This Is The Way I)
e|---------------------------------------------------------|
B|---------------------------------------------------------|
G|---------------------------------------------------------|
D|-7-7-7-7-7-7--10-10-10-10-10-10--3-3-3-3-3-3--5-5-5-5-5-5|X4
A|-7-7-7-7-7-7--10-10-10-10-10-10--3-3-3-3-3-3--5-5-5-5-5-5|
D|-7-7-7-7-7-7--10-10-10-10-10-10--3-3-3-3-3-3--5-5-5-5-5-5|

Guitar 2
e|------------------------|
B|------------------------|
G|-5----------------------|
D|-x----------------------|as much as needed
A|-3----------------------|
D|------------------------|



Their it is.
Enjoy
            
Hard to play? Try these video lessons and learn fast. | Correct




comments powered by Disqus
↑ Back to top | Tablatures and chords are parodies/interpretations of the original songs. You may use it for private study, scholarship, research or language learning purposes only