>
 >
Paper Lung 1

Paper Lung 1 Guitar Tabs

Underoath - Paper Lung 1 chords, tabs, tablatures, lyrics

Guitar lessons | Add/correct | Request | Top 50 tabs Artists:  A B C D E F G H I J K L M N O P Q R S T U V W X Y Z 0-9

Paper Lung 1 Guitar Tabs – Underoath

CD, Sheet music, Poster

Do you like Paper Lung 1? Share with your friends now
Bass TabsChordsTabsTabs v2Tabs v3Ukulele
---------------------------------------------------------------
                     Paper Lung - UnderOath
---------------------------------------------------------------

Tuning: Drop B

Intro
C#|-----------------------------------------------------|
G#|-----------------------------------------------------|
E |-----------------------------------------------------|
B |-----8-7~-----8-7---------8---7~---------------------|
F#|---5--------5-----7~----5---5------8~---7~-----------|
B |---------------------------------------------10~-----|

0:17
guitar 1
C#|------------------------------------------------------|
G#|------15------------13----15----------13~-------------|
E |-----------------------------------------------9~-----|  x2
B |---15----\\12-12-12----------12-12-12-----------------|
F#|------------------------------------------------------|
B |------------------------------------------------------|
guitar 2
C#|---------------------------------------------------|
G#|---------------------------------------------------|
E |---9---9---9\\5-5---5///10-10----10-9--------------|
B |-----7---7--------7-----------12------7------------|
F#|---------------------------------------------------|
B |---------------------------------------------------|

0:46  
guitar 1
C#|------------------------------------------------------------|
G#|---1515151515151515151313131313131313131313131313131313-----|
E |---1414141414141414141414141414141414141414141414141414-----|
B |---1212121212121212121212121212121212121212121212121212-----|
F#|------------------------------------------------------------|
B |------------------------------------------------------------|
guitar 2
C#|---------------------------------------------------|
G#|---------------------------------------------------|
E |---9---9---9\\5-5---5///10-10----10-9--------------|
B |-----7---7--------7-----------12------7------------|
F#|---------------------------------------------------|
B |---------------------------------------------------|

Chorus
both guitars
      "it's too late..."
C#|----------------------------------------------------------------------|
G#|------------------------------------33-33-3-33-33~--33-33-3-33-33~----|
E |------------------------------------22-22-2-22-22~--22-22-2-22-22~----|
B |------------------------------------00-00-0-00-00~--00-00-0-00-00~----|
F#|---55555555555555558888888888888888-00-00-0-00-00~--00-00-0-00-00~----|
B |---55555555555555558888888888888888-00-00-0-00-00~--00-00-0-00-00~----|
                                                  play ending x2
C#|---------------------------------------------|----------------------|
G#|---------------------------------------------|---33-33-3-33-33~~----|
E |---------------------------------------------|---22-22-2-22-22~~----|
B |---------------------------------------------|---00-00-0-00-00~~----|
F#|------3---3---3---3---3---3---3---3---3---3--|---00-00-0-00-00~~----|
B |----5---5---5---5---5---3---3---3---3---3----|---00-00-0-00-00~~----|

1:46
guitar 1   x2
C#|---------------------|
G#|---3~------1~--------|
E |---2~------2~--------|
B |---------------------|
F#|---------------------|
B |---------------------|
1:53
guitar 2
C#|---------------------------------------------------|
G#|---------------------------------------------------|
E |---9---9---9\\5-5---5///10-10----10-9--------------|
B |-----7---7--------7-----------12------7------------|
F#|---------------------------------------------------|
B |---------------------------------------------------|

2:15
palm muted part
C#|----------------------------------------------------------------------|
G#|---------------------------------------------------------1313131313---|
E |---1010101010101010101010101010101010101010101010101010101010101010---|
B |----------------------------------------------------------------------|
F#|----------------------------------------------------------------------|
B |----------------------------------------------------------------------|
      . . . . . . . . . . . . . . . . . . . . . . . . . . . 

Repeat Chorus

3:06
C#|---------------------------------------------|
G#|---------------------------------10101010----|
E |---------------------------------10101010----|
B |---7777777777777777777778888888888-8-8-8-----|
F#|---xxxxxxxxxxxxxxxxxxxxxxxxxxxxxxx-x-x-x-----|
B |---8888888888888888888888888888888-8-8-8-----|
3:14
C#|---------------------------------------------------------------------|
G#|---------------------------------------------------------------------|
E |---------------------------------------------------------------------|
B |-----------555555---------555-------------55555----------555---------|
F#|---0-0-0-0-777777-0-0-0-0-777-5/8-0-0-0-0-77777-0-00-0-0-777-5/8-----|
B |---0-0-0-0--------0-0-0-0-----5/8-0-0-0-0-------0-00-0-0-----5/8-----|

3:21
C#|---------------------------------------------|
G#|---------------------------------10101010----|
E |---------------------------------10101010----|
B |---7777777777777777777778888888888-8-8-8-----|
F#|---xxxxxxxxxxxxxxxxxxxxxxxxxxxxxxx-x-x-x-----|
B |---8888888888888888888888888888888-8-8-8-----|

3:29
C#|---------------------------------------------------------------------|
G#|---------------------------------------------------------------------|
E |---------------------------------------------------------------------|
B |-----------555555---------555-------------55555----------555---------|
F#|---0-0-0-0-777777-0-0-0-0-777-5/8-0-0-0-0-77777-0-00-0-0-777-5/8-----|
B |---0-0-0-0--------0-0-0-0-----5/8-0-0-0-0-------0-00-0-0-----5/8-----|

3:36                         t     t     t    t    t     t   t 
C#|------------------------------------------------17----15--------------|
G#|---15----13-----17^-------18----17----18---17-------------13----------|
E |----------------------------------------------------------------------|
B |------15----15--------------------------------------------------14^---|
F#|----------------------------------------------------------------------|
B |----------------------------------------------------------------------|
3:58
C#|-------------------------------------------|
G#|-------------------------------------------|
E |-------------------------------------------|
B |---7^-------7^------7^-------7^------------|
F#|---8^--0-0--8^-0-0--8^--0-0--8^--0-0-------|
B |-------0-0-----0-0------0-0------0-0-------|
          . .     . .      . .      . . 
C#|-------------------------------------------|
G#|-------------------------------------------|
E |-------------------------------------------|
B |---7^--------7^-----7^--------7^-----------|
F#|---8^--0-00--8^--0--8^--0-00--8^-----------|
B |-------0-00------0------0-00---------------|
          . ..      .      . ..


************************************

| .   palm mute
| /   slide up
| \   slide down
| h   hammer-on
| p   pull-off
| ~   vibrato
| +   harmonic
| x   Mute note
| b   Bend
| pb  Pre-bend
| br  Bend release
| pbr Pre-bend release
| brb Bend release bend

************************************





Comments


Popular Underoath tabs & chords
Breathing In A New Mentality Bass Tabs
The Changing Of Times Bass Tabs
Young And Aspiring 2 Bass Tabs
Angel Below 1 Tabs
Its Dangerous Business Walking Out Your Front Door 1 Tabs
Last 1 Tabs
Moving For The Sake Of Motion 2 Tabs
Reinventing Your Exit 5 Tabs
The Only Survivor Was Miraculously Unharmed Tabs
Too Bright To See Too Loud To Hear Intro Tabs


Song lyrics



↑ Back to top | Tablatures and chords are parodies/interpretations of the original songs. You may use it for private study, scholarship, research or language learning purposes only
© 2014 AZChords.com Contact us | Privacy policy | DMCA | Add/correct tabs | Request tabs | Top 50 tabs