>
 >
Never Meant To Break Your Heart

Never Meant To Break Your Heart Guitar Tabs

Underoath - Never Meant To Break Your Heart chords, tabs, tablatures, lyrics

Guitar lessons | Add/correct | Request | Top 50 tabs Artists:  A B C D E F G H I J K L M N O P Q R S T U V W X Y Z 0-9

Never Meant To Break Your Heart Guitar Tabs – Underoath

CD, Sheet music, Poster

Do you like Never Meant To Break Your Heart? Share with your friends now
TabsTabs v2
D -----7-8-7-8-------------------------
a -7-7-7-8-7-8--8--8--8--8--8--8--8--8-
d -------------------------------------
g -9-9---------10-10-10-10-10-10-10-10-

D -0-0-0-0--0-0-0-0-0-0-0-0-0-0-0-0-0-0-0--7-5-8-
a -0-0-0-0--0-0-0-0-0-0-0-0-0-0-0-0-0-0-0--7-5-8-   x4

D -0--------------------0-------------
a -0--10/9--10-9--7/9/7-0--10/9-12/7--
d ------------------------------------
g ----12/11-12-11-9/11/9---12/11-14/9-

D -------------------------------------------------
a -7-7-7-7-7-7/9--9--9--9--9---9/10-10-10-10-10-10-
d -------------------------------------------------   x2
g -9-9-9-9-9-9/11-11-11-11-11-11/12-12-12-12-12-12-

D -------------------------------------------
a -7-7-7-7-7-7-7-5-5-5-5-5-5-5-3-3-3-3-3-3-3-
d -0-0-0-0-0-0-0-0-0-0-0-0-0-0-0-0-0-0-0-0-0-
g -0-0-0-0-0-0-0-0-0-0-0-0-0-0-0-0-0-0-0-0-0-
b -0-0-0-0-0-0-0-0-0-0-0-0-0-0-0-0-0-0-0-0-0-
e -7-7-7-7-7-7-7-5-5-5-5-5-5-5-3-3-3-3-3-3-3-

D -----------------------------------------------------------------
a -10-10-10-10-10-10-10-7-7-7-7-7-7-7-9-9-9-9-9-9-9-5-5-5-5-5-5-5-5 x2

D --------
a -10/7/9-
d --------   x4
g -12/9/11

Guitar 1
D -----13----13-----13----13-
a -15-----15-----15----17----

Guitar 2
D -8(x16)-5(x16)-3(x16)-7(x16)-
a -8(x16)-5(x16)-3(x16)-7(x16)-
 pm...........................

D ------------------------------------------
a -8---------8---------8---------8----------
d ---10---10---10---10---10---10---10----10-   x6
g ------7---------8---------7---------12----

D ---------------------------------------------------
a -10-10-10-10-10-10-10-10-8--8--8--8--7-7-7-7/8/10--
d ---------------------------------------------------   x4
g -12-12-12-12-12-12-12-12-10-10-10-10-9-9-9-9/10/12-

D -------0-0-0-----0-0-0-----0-0-0-----0-0-0-
a -10-10-0-0-0-8-8-0-0-0-7-7-0-0-0-8-8-0-0-0-
d -------------------------------------------   x4
g -12-12------10-10------9-9------10-10------





Comments


Popular Underoath tabs & chords
A Fault Line, A Fault Of Mine Bass Tabs
I Dont Feel Very Receptive Today Bass Tabs
Writing On The Walls Bass Tabs
And I Dreamt Of You 2 Tabs
Down Set Go 1 Tabs
Illuminator 1 Tabs
In Regards To Myself Tabs
Smic Tague Tabs
When The Sun Sleeps Tabs
Writing On The Walls 1 Tabs


Song lyrics



↑ Back to top | Tablatures and chords are parodies/interpretations of the original songs. You may use it for private study, scholarship, research or language learning purposes only
© 2014 AZChords.com Contact us | Privacy policy | DMCA | Add/correct tabs | Request tabs | Top 50 tabs