» » »

Underoath, Letting Go Of Tonight Tabs (ver.1)

Artists:  A B C D E F G H I J K L M N O P Q R S T U V W X Y Z # 

Letting Go Of Tonight Tabs (ver.1)

Underoath Tabs
Rating:
0/5 (0 votes)
Letting Go Of Tonight lessons Tabs too difficult? Try these video lessons and learn fast
                Tuning: DADGBE

  Intro
e|----------------------|
B|----------------------|
G|----------------------|
D|-----10------12-------|
A|---8-------10---------|
E|-8-------10-----------|

e|----------------------------------------------|
B|----------------------------------------------|
G|----------------------------------------------|
D|----12121212-1515-15-17-15-888888-8-10-8------|  (4x)
A|----12121212-1515-15-17-15-888888-8-10-8------|
E|----12121212-1515-15-17-15-888888-8-10-8------|

e|-----------------------------------------------------------|
B|-----------------------------------------------------------|
G|-----------------------------------------------------------|
D|-88888-88888-88888-88888-88888-1010101010-1010101010-1010--|
A|-88888-88888-88888-88888-88888-1010101010-1010101010-1010--|
E|-88888-88888-88888-88888-88888-1010101010-1010101010-1010--|

e|-----------------------------------------------------------|
B|-----------------------------------------------------------|
G|-----------------------------------------------------------|
D|-1212121212-1212121212-1212-1414141414-1414141414-1414-----|
A|-1212121212-1212121212-1212-1414141414-1414141414-1414-----|
E|-1212121212-1212121212-1212-1414141414-1414141414-1414-----|

                                 |      2x    |
e|---------------------------------------------------|
B|---------------------------------------------------|
G|---------------------------------------------------|
D|-1515151515-1515151515-1515----10-12-8-19-15-------|
A|-1515151515-1515151515-1515----10-12-8-19-15-------|
E|-1515151515-1515151515-1515----10-12-8-19-15-------|


    let thes notes ring
e|-----------------------------|
B|-----------------------------|
G|-----------------------------|
D|-10-12-8-12-14-15-10-12------|
A|-10-12-8-12-14-15-10-12------|
E|-10-12-8-12-14-15-10-12------|

e|----------------------------------|
B|----------------------------------|
G|----------------------------------| (4x)
D|-1717171717171717-14141414141414--|
A|-1717171717171717-14141414141414--|
E|-1717171717171717-14141414141414--|

e|---------------------------------------------------------|
B|---------------------------------------------------------|
G|---------------------------------------------------------|
D|-1212121212-1212121212-1212-1414141414-1414141414-1414---|
A|-1212121212-1212121212-1212-1414141414-1414141414-1414---|
E|-1212121212-1212121212-1212-1414141414-1414141414-1414---|

e|---------------------------------------------------------|
B|---------------------------------------------------------|
G|---------------------------------------------------------|
D|-1515151515-1515151515-1515-1717171717-1717171717-1717---|
A|-1515151515-1515151515-1515-1717171717-1717171717-1717---|
E|-1515151515-1515151515-1515-1717171717-1717171717-1717---|

Hey im open to suggestions and comments. This tab is not 100% but it is pretty darn 
Its a fun song and easy to play. Have fun
            
Submit corrections

comments powered by Disqus
↑ Back to top | Underoath Tabs for Letting Go Of Tonight. Lyrics for acoustic guitar and electric guitar. Tablatures and chords are parodies/interpretations of the original songs. You may use it for private study, scholarship, research or language learning purposes only