» » »

Underoath, Ive Got Ten Friends And A Crowbar That Says You Cant Do Jack Tabs (ver.1)

Artists:  A B C D E F G H I J K L M N O P Q R S T U V W X Y Z # 

Ive Got Ten Friends And A Crowbar That Says You Cant Do Jack Tabs (ver.1)

Underoath Tabs
 Rating:
4/5 (4 votes)
Ive Got Ten Friends And A Crowbar That Says You Cant Do Jack lessons Tabs too difficult? Try these video lessons and learn fast
1
                Tuning:  Drop D

This is UO's newest song and possibly one of my favorites by them...I tried my best to
get the lead but i didn't get all of it, hope it's not a problem.  My timing is a little
off so you may want to play along with the CD first to get the feel for it and then jam
out to it when you've got everything figured out.

"Carry out the sounds, past the west horozons"
e|----------------------------------------------------|
B|----------------------------------------------------|
G|-4--4--4--4--4--4--4--4--4--4--4--4--4--------------|
D|-4--4--4--4--4--4--4--4--4--4--4--4--4--------------|
A|-2--2--2--2--2--2--2--2--2--2--2--2--2--------------|
D|----------------------------------------------------|

"I'm standing still, standing still, why i parted all the change"
e|---------------------------------------------------------------------|
B|---------------------------------------------------------------------|
G|---------------------------------------------------------------------|
D|--2--2--2--2--2--2--2--2--2--2--2---4--4--4--5--5--5--7--7--7--9-----|
A|--2--2--2--2--2--2--2--2--2--2--2---4--4--4--5--5--5--7--7--7--9-----|
D|--2--2--2--2--2--2--2--2--2--2--2---4--4--4--5--5--5--7--7--7--9-----|
                   Walking out, walking out, what do you expect of me?"
e|---------------------------------------------------------------------|
B|---------------------------------------------------------------------|
G|---------------------------------------------------------------------|
D|--9--9--9--9--9--9--2--2--2--2--4--4--4--5--5--5--5--7--7--7--7--9~--|
A|--9--9--9--9--9--9--2--2--2--2--4--4--4--5--5--5--5--7--7--7--7--9~--|
D|--9--9--9--9--9--9--2--2--2--2--4--4--4--5--5--5--5--7--7--7--7--9~--|

(guitar stops until "I know you think it's all because of me"
"At first glance,i'll breathe in..find your energy sequenced to mine as we push away"
e|------------------------------------------------------------------|
B|------------------------------------------------------------------|
G|--4-4-4-4-4-4-4-4-7-7-7-7-7-7-7-7---------------------------------|
D|--4-4-4-4-4-4-4-4-7-7-7-7-7-7-7-7-2-2-2-2-2-2-2-2-5-5-5-5-5-5-5-5-|x3
A|--2-2-2-2-2-2-2-2-----------------2-2-2-2-2-2-2-2-5-5-5-5-5-5-5-5-|
D|----------------------------------2-2-2-2-2-2-2-2-5-5-5-5-5-5-5-5-|
  pm.........................................................

  "With everything we have, everything we have"
e|----------------------------------------------------|
B|----------------------------------------------------|
G|----------------------------------------------------|
D|---7-7--7-7--7--7---9-9--9-9--9--9------------------|
A|---7-7--7-7--7--7---9-9--9-9--9--9------------------|
D|---7-7--7-7--7--7---9-9--9-9--9--9------------------|

Here is the chorus, you can figure out the timing, it's really easy

   "Ohhh their acting on my words, thier acting on my words
   we can start the fire, that will light up the night
   no i wouldn't be to sure of you at all (sure of you at all)

e|--------------------------------------------|
B|--------------------------------------------|
G|--4-4-4-4-4-4-4-----------------------------|
D|--4-4-4-4-4-4-4-2-2-2-2-2-4-4-4-5-5-7-7-----|
A|--2-2-2-2-2-2-2-2-2-2-2-2-4-4-4-5-5-7-7-----|
D|----------------2-2-2-2-2-4-4-4-5-5-7-7-----|

e|--------------------------------------------|
B|--------------------------------------------|
D|--9-9-9-9-9-9-9-2-2-2-2-2-4-4-4-5-5-7-7-9~--|
A|--9-9-9-9-9-9-9-2-2-2-2-2-4-4-4-5-5-7-7-9~--|
D|--9-9-9-9-9-9-9-2-2-2-2-2-4-4-4-5-5-7-7-9~--|

  "we look so good we look so good, so good so good as we fall, (yeah)"
e|--------------------------------------------------------|
B|--------------------------------------------------------|
G|--------------------------------------------------------|
D|-9------------------------------------------------------|
A|-9->palm mute up to so good, so good as we fall(yeah)-then work out of it
D|-9------------------------------------------------------|

here's my attempt at the lead, sorry if it's really off
e|------------------------------------------| repeat the last part a couple
B|------------------------------------------| of times
G|----------7b--6b-4b------7b-7b-6b-4b------|
D|--6-5------------------4------------------| if you desperately need this
A|------4b-------------2--------------------| part then i am really sorry
D|------------------------------------------| that i can't tab it for you

  "I'll go ahead and re-elect percection, never looked as good as it does on you right 
i'll make an incision, don't you feel anything at all?"
e|------------------------------------------------------------------|
B|------------------------------------------------------------------|
G|--4-4-4-4-4-4-4-4-7-7-7-7-7-7-7-7---------------------------------|
D|--4-4-4-4-4-4-4-4-7-7-7-7-7-7-7-7-2-2-2-2-2-2-2-2-5-5-5-5-5-5-5-5-|x3
A|--2-2-2-2-2-2-2-2-----------------2-2-2-2-2-2-2-2-5-5-5-5-5-5-5-5-|
D|----------------------------------2-2-2-2-2-2-2-2-5-5-5-5-5-5-5-5-|

  "as for you be sure to cover up, to cover up your mouth"
e|------------------------------------------------------------------------|
B|------------------------------------------------------------------------|
G|--------------------------------7-7-7-7-7-7-9-9-9-7-7-7-7b--------------|
D|-7-7--7-7--7--7--9-9--9-9--9--9--------------7-7-7-5-5-5-5-5-5-5-5-5-7b-|
A|-7-7--7-7--7--7--9-9--9-9--9--9-----------------------------------------|
D|-7-7--7-7--7--7--9-9--9-9--9--9-----------------------------------------|

(Chorus)
e|--------------------------------------------|
B|--------------------------------------------|
G|--4-4-4-4-4-4-4-----------------------------|
D|--4-4-4-4-4-4-4-2-2-2-2-2-4-4-4-5-5-7-7-----|\
A|--2-2-2-2-2-2-2-2-2-2-2-2-4-4-4-5-5-7-7-----| \
D|----------------2-2-2-2-2-4-4-4-5-5-7-7-----|  \
                                                  x2
e|--------------------------------------------| -- /
B|--------------------------------------------|--- /
D|--9-9-9-9-9-9-9-2-2-2-2-2-4-4-4-5-5-7-7-9~------ /
A|--9-9-9-9-9-9-9-2-2-2-2-2-4-4-4-5-5-7-7-9~------ /
D|--9-9-9-9-9-9-9-2-2-2-2-2-4-4-4-5-5-7-7-9~------ /

  "I don't know how to say this, my thoughts have just run out"
e|--------------------------------------------------------|
B|--------------------------------------------------------|
G|--------------------------------------------------------|
D|-9------------------------------------------------------|
A|-9->palm mute up to "ohh,they've just run,(yeah)"--then work out of it
D|-9------------------------------------------------------|

  i'll try my hardest to make this lead sound better

e|--------------------------------------|
B|--------------------------------------|
G|--7--6--4--7--6--4---4----------------|
D|---------------------4----------------|
A|---------------------2----------------|
D|--------------------------------------|

if you know the lead to this song i would love to know or if you have questions or
            
Submit corrections

comments powered by Disqus
↑ Back to top | Underoath Tabs for Ive Got Ten Friends And A Crowbar That Says You Cant Do Jack. Lyrics for acoustic guitar and electric guitar. 1 Tablatures and chords are parodies/interpretations of the original songs. You may use it for private study, scholarship, research or language learning purposes only