» » »

Underoath, In Regards To Myself Tabs (ver.1)

Artists:  A B C D E F G H I J K L M N O P Q R S T U V W X Y Z # 

In Regards To Myself Tabs (ver.1)

Underoath Tabs
 Rating:
4/5 (4 votes)
In Regards To Myself lessons Tabs too difficult? Try these video lessons and learn fast
1
                Tuning: Drop D (DADGBE)

| /  slide up
| \  slide down
| h  hammer-on
| p  pull-off
| ~  vibrato
| +  harmonic
| x  Mute note


Intro:
E------------------------------------------------------------------------0-------|
B-----------------6------------------------------------------------------4-------|
G-----------------9--------------------------------------------------------------|
D-----------------------------7-x88x-888-----------------------------------------|
A-----------------------------8-x77x-777--3-0-2--xxxx----------------------------|
D--0-0--2h3p0-8h10---0h10p0---------------3-0-2--xxxx---0--2h3p0-8h10----0h10p0--|

-------------------------------|
-------------------------------|
-------------------------------|
--7-x88x-888-------------------|    then drums and
--8-x77x-777--3-0-2--xxxx------|     base come in
--------------3-0-2--xxxx------|


E--------------0----------------------------------|
B--------------4----------------------------------|
G-------------------------------------------------|
D----------1/3----------7-x88x-888----------------|  x4
A-0-2-3-5---------------8-x77x-777--3-0-2--xxxx---|
D-0-2-3-5--------0h10p0-------------3-0-2--xxxx---|


E------------------------|
B------------------------|
G------------------------|
D------------------------|(bend) x8   there's a riff in the backround here that's
A--0-xx-0-xx-2^2---------|      very faint so i didnt tab it!
D--0-xx-0-xx-2^2---------|

E----------------------------------------------------------------------------|
B----------------------------------------------------------------------------|
G----------------------------------------------------------------------------|
D----------------------------------------------------------------------------|
A--1-7-0--5555555555555555-77777777-33333333-5x5x5x--55555555-77777777--3333-|
D--1-7-0--1111111111111111-77777777-33333333-1x1x1x--11111111-77777777--3333-|

-----------|
-----------|
-----------|
------+5+--| x2   then the heavy part
-x00x------|
-x00x------|


E-------------------------0----------------------|
B-------------------------6----------------------|
G------------------------------------------------|
D------------------------------------------------| x4 this part is way confusing
A--xx-3/8-xx-8\0-xx-3/8-0----xx-3-2-xx-2-0-------|      but i tried..
D--xx-3/8-xx-0\0-xx-3/8-0----xx-3-2-xx-2-0-------|

E-5555555555555555555555555...
B-4444444444444444444444444...
G------------------------------|
D------------------------------|  buildup- play alot
A------------------------------|
D------------------------------|

E---------------------------------------|
B---------------------------------------|
G---------------------------------------|
D----3----3-----------------------------| x4
A-xx-0-xx-0---888888888888888888888888--|
D-xx-0-xx-0---888888888888888888888888--|

E------------         -------------------------------------------------------|
B------------         ----6-6666---6-6666--6-6666--6-6666-6-6666-------------|
G---10-101010         ----9-9999---9-9999--9-9999--9-9999-9-9999-------------|
D------------ x2      -------------------------------------------------------|
A-0--8--8888-         --0--------0--------0-------0------0-------x-3\1-x-7\3-|
D-0----------         --0--------0--------0-------0------0-------x-3\1-x-7\3-|

the end is just these three chords...

E--------|
B--------|
G--------|
D--------|
A-1-7-0--|
D-1-7-0--|

Antwan
            
Submit corrections

comments powered by Disqus
↑ Back to top | Underoath Tabs for In Regards To Myself. Lyrics for acoustic guitar and electric guitar. 1 Tablatures and chords are parodies/interpretations of the original songs. You may use it for private study, scholarship, research or language learning purposes only