» » »

Innocence Stolen Tabs (ver.2)

Artists:  A B C D E F G H I J K L M N O P Q R S T U V W X Y Z # 

Innocence Stolen Tabs (ver.2)

Underoath
Rating:
0/5 (0 votes)

Hard to play? Try these video lessons and learn fast.
                All right there are no tabs for this song so I figured
this stuff out.

Drop D tuning: DADGBE

This song owns, Underoath was a great band
and did a great job with this speaking out 
against rape and child molestation.

Tab key:
h:hammer on
p:pull of
....:palm mutes
":Tremolo pick

Riff 1
E|---------------------------------------|
B|---------------------------------------|
G|---------------------------------------|
D|-0000000000000-88-333333333333-5p3-3p2-| 4x
A|-0000000000000-88-333333333333---------|
D|-0000000000000-88-333333333333---------|
   .............    ............
This first part is 2 guitars and base tripled up

Riff 2A
E|-------------------------------------------------------------------|
B|-------------------------------------------------------------------|
G|-------------------------------------------------------------------|
D|-000000-000000-0000000-00000-8-333333-333333-333333-333333-5p3-3p2-|  1x
A|-000000-000000-0000000-00000-8-333333-333333-333333-333333---------|
D|-000000-000000-0000000-00000-8-333333-333333-333333-333333---------|
   ...... ...... ....... .....   ...... ...... ...... ......

Riff 2B
E|-------------------------------------------------------------------|
B|-------------------------------------------------------------------|
G|-------------------------------------------------------------------|
D|-000000-000000-0000000-00000-8-333333-333333-333333-3333333333-----|  1x
A|-000000-000000-0000000-00000-8-333333-333333-333333-3333333333-----|
D|-000000-000000-0000000-00000-8-333333-333333-333333-3333333333-----|
   ...... ...... ....... .....   ...... ...... ...... ..........

Riff 3
E|---------------------------------------|
B|---------------------------------------|
G|---------------------------------------|
D|-00-00-00-00-00-8-33-33-33-33----------|  4x
A|-00-00-00-00-00-8-33-33-33-33-5/7--7/8-|
D|-00-00-00-00-00-8-33-33-33-33----------|
   .. .. .. .. ..   .. .. .. ..

Riff 4
E|---------------------------------------------------------------|
B|---------------------------------------------------------------|
G|---------------------------------------------------------------|
D|-5-5-5-5-5-5-5-5-3-3-3-3-3-3-3-3-7-7-7-7-7-7-5-5-5-5-5-5-5-5-5-| 1x
A|-3-3-3-3-3-3-3-3-1-1-1-1-1-1-1-1-5-5-5-5-5-5-3-3-3-3-3-3-3-3-3-|
D|-3-3-3-3-3-3-3-3-1-1-1-1-1-1-1-1-5-5-5-5-5-5-3-3-3-3-3-3-3-3-3-|
This part is basically strummed but I'm not quite sure
if he's not just strumming once or twice and letting it sustain

Riff 5
E|---------------------------------------------|
B|---------------------------------------------|
G|---------------------------------------------|
D|-----5-----5--5--5-------3-------7---7--7--7-| 2x
A|-3333--333---3--3----1111----5555--55--5--5--|
D|-3333--333---3--3----1111----5555--55--5--5--|
   ....  ...   .  .    ....    ....  ..  .  .

Riff 6
E|-----------------|
B|-----------------|
G|-----------------|
D|-4-7-5-8-4-7-5-8-| 1x then a 4 second pause then 4x more
A|-4-7-5-8-4-7-5-8-|
D|-4-7-5-8-4-7-5-8-|

Riff 7
E|----------------------------------|
B|----------------------------------|
G|----------------------------------|
D|-44447777555588884444777755558888-| 2x
A|-44447777555588884444777755558888-|
D|-44447777555588884444777755558888-|

Riff 8
E|--------------------|
B|--------------------|
G|--------------------|
D|-0--0--0--0---------| 2x
A|-0--0--0--0--7h9h10-|
D|-0--0--0--0---------|
   .  .  .  . 

Riff 9
E|-----------------------------|
B|-----------------------------|
G|-----------------------------|
D|-0-0-00-0-0-00-0-0-00--------| 4x
A|-0-0-00-0-0-00-0-0-00-7h9h10-|
D|-0-0-00-0-0-00-0-0-00--------|
   . . .. . . .. . . .. 

Riff 10
E|-----------------------------|
B|-----------------------------|
G|-----------------------------|
D|-000000000000000000000000000-| 2x
A|-000000000000000000000000000-|
D|-000000000000000000000000000-|
   ...........................

Riff 11
E|---------------------|
B|---------------------|
G|---------------------|
D|-0-4-0-0-7-0-5-0-0-8-| 8x
A|-0-4-0-0-7-0-5-0-0-8-|
D|-0-4-0-0-7-0-5-0-0-8-|

Riff 12
E|------------------------------------------|
B|------------------------------------------|
G|------------------------------------------|
D|-------------555533332222------------3333-| 2x
A|-555500001111------------555500001111-----|
D|------------------------------------------|
   """"""""""""""""""""""""""""""""""""""""

Riff 13A  The order goes A once, B once, A once, B once
E|----------------------------------------------------|
B|----------------------------------------------------|
G|----------------------------------------------------|
D|-7-7-7-7-7-7-2-2-2-2-2-2-3-3-3-3-3-3-5-555533332222-| 2x
A|-5-5-5-5-5-5-0-0-0-0-0-0-1-1-1-1-1-1-3--------------|
D|----------------------------------------------------|
                                         """"""""""""
Listen to the song for the exact strumming here

E|-------------------------------------------------|
B|-------------------------------------------------|
G|-------------------------------------------------|
D|-7-7-7-7-7-7-2-2-2-2-2-2-3-3-3-3-3-3-5-5-5-5-5-5-| 2x
A|-5-5-5-5-5-5-0-0-0-0-0-0-1-1-1-1-1-1-3-3-3-3-3-3-|
D|-------------------------------------------------|

                                 D|-0-|
Repeat Riff 12 2x and end with a A|-0-| and let it ring
                                 D|-0-|

Riff 14
E|-----------------|
B|-----3h4p3-6-4-3-|
G|-2-3-------------|
D|-----------------| 4x
A|-----------------|
D|-----------------|

Riff 15
E|---------------------------------|
B|---------------------------------|
G|---------------------------------|
D|-0------------------1------------| 4x
A|-0------------------1------------|
D|-0------------------1------------|
"This one's for the child molesters' 
this one's for the people who rape.
My God, powerful, will burn your bridges down"

Riff 16
E|-----------------------------|
B|-----------------------------|
G|-----------------------------|
D|--3---2---1------------------| 4x
A|--3---2---1-0000000000000000-|
D|0---0---0---0000000000000000-|
              ................

Riff 17
E|-----------------------------|
B|-----------------------------|
G|-----------------------------|
D|--5---4---3------------------| 8x
A|--3---2---1-0000000000000000-|
D|0---0---0---0000000000000000-|
              ................

Riff 18
E|-------------------------|
B|-------------------------|
G|-------------------------|
D|-------------------8-4-7-| 1x
A|-00000000-00000000-8-4-7-|
D|-00000000-00000000-8-4-7-|
   ....... ........

Riff 19
E|--------------------------|
B|--------------------------|
G|-------------------10-5---|
D|-------------------x--x-6-| 16x
A|-00000000-00000000-8--3-6-|
D|-00000000-00000000------6-|
   ........ ........


Riff 20
E|-----------------------------------|
B|-----------------------------------|
G|-----------------------------------|
D|-----------------------------------| 2x
A|-12-12-12-12-8888-11-11-11-11-7777-|
D|-----------------------------------|
   "  "  "  "  """" "  "  "  "  """"

Riff 21 (Last one)
E|------------------|
B|------------------|
G|------------------|
D|------------------| 4x
A|-5555----4444-----|
D|-----7777----6666-|
   """"""""""""""""

Peace
            
Hard to play? Try these video lessons and learn fast. | Correct




comments powered by Disqus
↑ Back to top | Tablatures and chords are parodies/interpretations of the original songs. You may use it for private study, scholarship, research or language learning purposes only