» » »

Im Content With Losing Tabs (ver.2)

Artists:  A B C D E F G H I J K L M N O P Q R S T U V W X Y Z # 

Im Content With Losing Tabs (ver.2)

Underoath
Rating:
0/5 (0 votes)
Tabs too difficult? Try these video lessons and learn fast.
                (Intro)
----------------------------------------------------------------------------
                      -I'M CONTENT WITH LOSING-
----------------------------------------------------------------------------

  key:
  
  p: pull-off
  /: slide
  *: let ring

intro:


e|-----0-0------------------------0--0-0--------------------0--|
B|--4--5p4--0-0-0--0-0-0-0-0-0-0--4--5p4--0-0-0-0-0-0-0-0-0-4--|
G|----------6-4-4--4-4-4-4-4-4-4----------6-4-6-6-6-6-6-6-6----|
D|-------------------------------------------------------------|
A|-------------------------------------------------------------|
D|-------------------------------------------------------------|


e|--0-0-0--0-0-0-0-0-0-0-0--0-0-0-0--0-0-0-0--0-0-0-0-0-0-0-0-0-0-0-0-|
B|--4-4-4--5-5-5-5-4-4-4-4--5-5-5-5--4-4-4-4--5-5-5-5-4-4-4-4-5-5-5-5-|
G|--------------------------------------------------------------------|
D|--------------------------------------------------------------------|
A|--------------------------------------------------------------------|
D|--------------------------------------------------------------------| 


e|-----7-----7-----7-----7-----7----7-----7-----7-----7----7-|
B|--4-5---4-5---4-5---4-5---4-5--4-5---4-5---4-5---4-5--4-5--|
G|-----------------------------------------------------------|
D|-----------------------------------------------------------|
A|-----------------------------------------------------------|
D|-----------------------------------------------------------| 




e|-------------*7---------|
B|--4--4/9-----*9-----9/4-|
G|------------------------|
D|------------------------|
A|------------------------|
D|------------------------| 


                   
               (Play this riff twice)
e|------0--------------4--------0-----------7---7---|         -----
B|----4---4---4----4/5----5-----4/5---7--5----5---5-|         -----
G|--6-------6---------------6-----------------------|   then  -*6--
D|--------------------------------------------------|         -*6--
A|--------------------------------------------------|         -*4--
D|--------------------------------------------------|         -----




I'M HALF WAY THERE.....

e|----------------------------------|
B|----------------------------------|
G|----------------------------------|
D|-11-11-11-11-11-11-11-11-11-11-11-|
A|-11-11-11-11-11-11-11-11-11-11-11-|
D|-11-11-11-11-11-11-11-11-11-11-11-| 



so, this is the intro, i hope you people enjoy it now..
any questions? just ask.....
            
Tabs too difficult? Try these video lessons and learn fast.


comments powered by Disqus
↑ Back to top | Tablatures and chords are parodies/interpretations of the original songs. You may use it for private study, scholarship, research or language learning purposes only