>
 >
Im Content With Losing

Im Content With Losing Guitar Tabs

Underoath - Im Content With Losing chords, tabs, tablatures, lyrics

Guitar lessons | Add/correct | Request | Top 50 tabs Artists:  A B C D E F G H I J K L M N O P Q R S T U V W X Y Z 0-9

Im Content With Losing Guitar Tabs – Underoath

CD, Sheet music, Poster

Do you like Im Content With Losing? Share with your friends now
Bass TabsChordsTabsUkulele

Tuning:Dropped D.
Lead guitar:
Intro/Pre-Verse thingy.
I'm pretty sure the leads 98% right. Rhythm is 100%. Email me if you 
have any questions or comments.

e|-------------------------------------|
B|--4--5p4---------4--5p4--------------|
G|----------6--4*-----------6--4*------|
D|-------------------------------------|
A|-------------------------------------|
D|-------------------------------------|

e|-0-0-0-0--0-0-0-0--0-0-0-0--0-0-0-0--0-0-0-0--0-0-0-0--0-0-0-0--0-0-0-0-|
B|-4-4-4-4--5-5-5-5--4-4-4-4--5-5-5-5--4-4-4-4--5-5-5-5--4-4-4-4--5-5-5-5-|
G|------------------------------------------------------------------------|
D|------------------------------------------------------------------------|
A|------------------------------------------------------------------------|
D|------------------------------------------------------------------------| 

e|-----7-----7-----7-----7-----7------7-----7-----7------7-----7-|
B|--4-5---4-5---4-5---4-5---4-5---4-5---4-5---4-5---4-5---4-5----|
G|---------------------------------------------------------------|
D|---------------------------------------------------------------|
A|---------------------------------------------------------------|
D|---------------------------------------------------------------| 

e|------7-------7----------|
B|--4---9---7---5----------|
G|-------------------------|
D|-------------------------|
A|-------------------------|
D|-------------------------| 

Pre-Chorus
e|----------------------------------------|
B|2-4-5-4--2-4-9-5--2-4-7-5--4-5-7-5------|
G|----------------------------------------| x2
D|----------------------------------------|
A|----------------------------------------|
D|----------------------------------------|

Chorus x2
"I'm Half Way There" 
e|00000000000000000000000000000000-0--0--00000000--00000000--00000000--00000000---|
B|44444444444444444444444444444444-4--4--55555555--77777777--99999999--77777777---|
G|--------------------------------------------------------------------------------|
D|--------------------------------------------------------------------------------|
A|--------------------------------------------------------------------------------|
D|--------------------------------------------------------------------------------|
On this part listen to the song and you'll hear what I'm talking about.
e|---0------0---|
B|4/12---4/12---|
G|--------------| 
D|--------------|
A|--------------|
D|--------------|

e|-0-0-0--|
B|12-5-7--|
G|--------|
D|--------|
A|--------|
D|--------|

Pre-Verse/Verse start while he says manic. Repeat the 2nd part 4x's
e|-----------------------------------------------------4---------|
B|2-5-4-2--4h5p4--9-5--5-4-2---5-4-2-5-4-2-5-4-2-5-4-2-----------|
G|---------------------------------------------------------------| 
D|---------------------------------------------------------------|
A|---------------------------------------------------------------|
D|---------------------------------------------------------------|
Pre-Chorus
e|----------------------------------------------|
B|2-4-5-4--2-4-9-5--2-4-7-5--4-5-7-5------------|
G|----------------------------------------------|
D|----------------------------------------------|x2
A|----------------------------------------------|
D|----------------------------------------------|

Chorus x2
e|00000000000000000000000000000000-0--0--00000000--00000000--00000000--00000000---|
B|44444444444444444444444444444444-4--4--55555555--77777777--99999999--77777777---|
G|--------------------------------------------------------------------------------|
D|--------------------------------------------------------------------------------|
A|--------------------------------------------------------------------------------|
D|--------------------------------------------------------------------------------|

e|---0------0---|
B|4/12---4/12---|
G|--------------| x2
D|--------------|
A|--------------|
D|--------------|

Bridge
e|-----------------------------------------------------|
B|-----------------------------------------------------|
G|-----------------------------------------------------|
D|-------9-6*--------9-6*---9--9--9--9--9--9--9--------|x2
A|--7-----------7-----------11-11-11-11-11-11-11-------|
D|7---7-------7---7---------11-11-11-11-11-11-11-------|
Quickly mute the last note.
e|-----------------------------------------------|
B|-----------------------------------------------|
G|-----------------------------------------------|
D|-------9-6*--------9-6*---9--9--9--9-----------|
A|--7-----------7-----------11-11-11-11----------|
D|7---7-------7---7---------11-11-11-11----------|

The timing for this section is tricky, but practice and you'll get it.
e|4-----------4-----------4-----------4-----------4----------------------|
B|--5-4-2h4h5---5-4-2h4h5---5-4-2h4h5---5-4-2h4h5---5-4-2h4h5p4h5--------|
G|-----------------------------------------------------------------------|x2
D|-----------------------------------------------------------------------|
A|-----------------------------------------------------------------------|
D|-----------------------------------------------------------------------|
Then the notes change very slightly. All you do is drop the 5.
e|4---------4---------4---------4---------4----------------------------------|
B|--5-4-2h4---5-4-2h4---5-4-2h4---5-4-2h4---5-4-2h4h5p4h5--------------------|
G|---------------------------------------------------------------------------|
D|---------------------------------------------------------------------------|x4
A|---------------------------------------------------------------------------|
D|---------------------------------------------------------------------------|
On the last time through, mute the last note quickly.
e|--------------------------------------------------|
B|--------------------------------------------------|
G|--------------------------------------------------|x5
D|6666666-6666666-6666666-9--9--9--9--9--9--9-------|
A|7777777-7777777-7777777-11-11-11-11-11-11-11------|
D|7777777-7777777-7777777-11-11-11-11-11-11-11------|

Rhythm
Intro/Pre-Verse x2
e|----------------------------------------------------------------------------------------|
B|----------------------------------------------------------------------------------------|
G|----------------------------------------------------------------------------------------|
D|77777777777777777777777777777777-11111111111111111111111111111111-9999999999999999------|
A|77777777777777777777777777777777-11111111111111111111111111111111-9999999999999999------|
D|77777777777777777777777777777777-11111111111111111111111111111111-9999999999999999------|
Verse
e|------------------------------------------------------------------------------|
B|------------------------------------------------------------------------------|
G|------------------------------------------------------------------------------|
D|7777777777777777--9999999999999999--7777777777777777--9999999999999999--11*---|
A|7777777777777777--9999999999999999--7777777777777777--9999999999999999--11----|
D|7777777777777777--9999999999999999--7777777777777777--9999999999999999--11----|

e|------------------------------------------------------------------------------------|
B|------------------------------------------------------------------------------------|
G|------------------------------------------------------------------------------------|
D|11-11-111111-111111-111111-9-99-999-999--9-9--7-7-777-777-777-999-999-999-999-------|
A|11-11-111111-111111-111111-9-99-999-999--9-9--7-7-777-777-777-999-999-999-999-------|
D|11-11-111111-111111-111111-9-99-999-999--9-9--7-7-777-777-777-999-999-999-999-------|

e|------------------------------------------------------------------------------------|
B|------------------------------------------------------------------------------------|
G|------------------------------------------------------------------------------------|
D|11-11-111111-111111-111111-9-99-999-999--9-9--7-7-777-777-777-999-999-999-9999------|
A|11-11-111111-111111-111111-9-99-999-999--9-9--7-7-777-777-777-999-999-999-9999------|
D|11-11-111111-111111-111111-9-99-999-999--9-9--7-7-777-777-777-999-999-999-9999------|

e|---------------------------------------------------------------------------|
B|---------------------------------------------------------------------------|
G|---------------------------------------------------------------------------|
D|7-77*-4-44*-11-1111*-99-9/11\9--7-77*-4-44*-11111111-9*--------------------|
A|7-77--4-44--11-1111--99-9/11\9--7-77--4-44--11111111-9---------------------|
D|7-77--4-44--11-1111--99-9/11\9--7-77--4-44--11111111-9---------------------|
Pre-Verse x2
e|----------------------------------------------------------------------------------------|
B|----------------------------------------------------------------------------------------|
G|----------------------------------------------------------------------------------------|
D|77777777777777777777777777777777-11111111111111111111111111111111-9999999999999999------|
A|77777777777777777777777777777777-11111111111111111111111111111111-9999999999999999------|
D|77777777777777777777777777777777-11111111111111111111111111111111-9999999999999999------|
Verse "This is the moment"
e|---------------------------------------------------------------------------|
B|---------------------------------------------------------------------------|
G|---------------------------------------------------------------------------|
D|7777777777777777--9999999999999999--7777777777777777--9999999999999999-----|
A|7777777777777777--9999999999999999--7777777777777777--9999999999999999-----|
D|7777777777777777--9999999999999999--7777777777777777--9999999999999999-----|
Pre-Chorus
e|------------------------------------------------------------------------------------|
B|------------------------------------------------------------------------------------|
G|------------------------------------------------------------------------------------|
D|11-11-111111-111111-111111-9-99-999-999--9-9--7-7-777-777-777-999-999-999-999-------|
A|11-11-111111-111111-111111-9-99-999-999--9-9--7-7-777-777-777-999-999-999-999-------|
D|11-11-111111-111111-111111-9-99-999-999--9-9--7-7-777-777-777-999-999-999-999-------|

e|------------------------------------------------------------------------------------|
B|------------------------------------------------------------------------------------|
G|------------------------------------------------------------------------------------|
D|11-11-111111-111111-111111-9-99-999-999--9-9--7-7-777-777-777-999-999-999-9999------|
A|11-11-111111-111111-111111-9-99-999-999--9-9--7-7-777-777-777-999-999-999-9999------|
D|11-11-111111-111111-111111-9-99-999-999--9-9--7-7-777-777-777-999-999-999-9999------|
Chorus 2
e|---------------------------------------------|
B|---------------------------------------------|
G|---------------------------------------------|
D|7-77*-4-44*-11-1111*-99-9/11\9---------------|x2
A|7-77--4-44--11-1111--99-9/11\9---------------|
D|7-77--4-44--11-1111--99-9/11\9---------------|

e|----------------------------------------------------------------------------------------|
B|----------------------------------------------------------------------------------------|
G|----------------------------------------------------------------------------------------|
D|7-7-7777-4-4-4444-11-11-11111111-9-9-9999-7-7-7777-4-4-4444-11-11-11111111-9-9-9999-----|
A|7-7-7777-4-4-4444-11-11-11111111-9-9-9999-7-7-7777-4-4-4444-11-11-11111111-9-9-9999-----|
D|7-7-7777-4-4-4444-11-11-11111111-9-9-9999-7-7-7777-4-4-4444-11-11-11111111-9-9-9999-----|
Bridge
e|-------------------------------------------------------------------------------------|
B|-------------------------------------------------------------------------------------|
G|-------------------------------------------------------------------------------------|
D|7777*-7777*-11111111111111--7777*-7777*-11111111111111--7777*-7777*-11111111x--------|
A|7777--7777--11111111111111--7777--7777--11111111111111--7777--7777--11111111x--------|
D|7777--7777--11111111111111--7777--7777--11111111111111--7777--7777--11111111x--------|
Slight Pause here.
e|---------------------------------------------------------------------------|
B|---------------------------------------------------------------------------|
G|---------------------------------------------------------------------------|
D|7777*-7777*-11111111111111-7777777-7777777-7777777-11111111111111----------|
A|7777--7777--11111111111111-7777777-7777777-7777777-11111111111111----------|
D|7777--7777--11111111111111-7777777-7777777-7777777-11111111111111----------|
On the last time through, hit the last note and quickly palm mute it.
e|---------------------------------------------------------|
B|---------------------------------------------------------|
G|---------------------------------------------------------|
D|7777777-7777777-7777777-11111111111111-------------------|x8
A|7777777-7777777-7777777-11111111111111-------------------|
D|7777777-7777777-7777777-11111111111111-------------------|

Well, that's it. Hope you like it! 

| * let ring
| \  slide down
| /  slide up
| h  hammer-on
| p  pull-off
| x  mute strum/mute string



                   
    





Comments


Popular Underoath tabs & chords
Casting Such A Thin Shadow Bass Tabs
Heart Of Stone Bass Tabs
In Regards To Myself Bass Tabs
The Created Void Bass Tabs
I Dont Feel Very Respective Today Tabs
I Got Ten Friends And A Crowbar That Says You Aint Gonna Do Jack Tabs
Ive Got Ten Friends And A Crowbar That Says You Cant Do Jack Tabs
Paper Lung 1 Tabs
Returning Empty Handed Tabs
Writing On The Walls Tabs


Song lyrics



↑ Back to top | Tablatures and chords are parodies/interpretations of the original songs. You may use it for private study, scholarship, research or language learning purposes only
© 2014 AZChords.com Contact us | Privacy policy | DMCA | Add/correct tabs | Request tabs | Top 50 tabs