>
 >
Illuminator 3

Illuminator 3 Guitar Tabs

Underoath - Illuminator 3 chords, tabs, tablatures, lyrics

Guitar lessons | Add/correct | Request | Top 50 tabs Artists:  A B C D E F G H I J K L M N O P Q R S T U V W X Y Z 0-9

Illuminator 3 Guitar Tabs – Underoath

CD, Sheet music, Poster

Do you like Illuminator 3? Share with your friends now
TabsTabs v2Tabs v3Tabs v4
I learned this song by ear to be honest. At first I looked at the tab but when I played,
it just didn't sound right, so I took a good hard listen at the song and tried my best
to get this 100% accurate. You might need to listen to the song for the tremolo picking 
ENJOY!

Drop D

Awake to the sound of emptiness....
|---------------------------------------------------|
|----------1----------------------------------------|
|----------1----------------------------------------|
|----------1----------------------------------------|
|-5---3---------3-----------------------------------|
|--0-1-1-0--0-1--1-0-1------------------------------|  (x4)

How do I know what side I'm on...
|---------------------------------------------------|
|---------------------------------------------------|
|-7(x32)-7(x32)-------------------------------------|
|-------10(x32)-------------------------------------|
|---------------------------------------------------|
|---------------------------------------------------|

Breathe...
|---------------------------------------------------|
|---------------------------------------------------|
|---------------------------------------------------|
|---------------------------------------------------|
|-5---3-3~---3--------------------------------------|
|--0-1----0-1-1-0-1---------------------------------| (x4)

CHORUS
This is where they all come....
|---------------------------------------------------|
|---------------------------------------------------|
|---------------------------------------------------|
|-0~--0~-3-0~---------------------------------------|
|-0~--0~-3-0~---------------------------------------|
|-0~--1~-3-0~---------------------------------------| (x4)

Weigh up the options
|---------------------------------------------------|
|----------1----------------------------------------|
|----------1----------------------------------------|
|----------1----------------------------------------|
|-5---3---------3-----------------------------------|
|--0-1-1-0--0-1--1-0-1------------------------------| (x3)

Come on man I swear you can do this...
|---------------------------------------------------|
|-------------------1-------------------------------|
|-------------------1-------------------------------|
|-3-1-0-5-3-1-3-1-0-1-3-1-0-1-----------------------|
|-3-1-0-3-3-1-3-1-0---3-1-0-1-----------------------|
|-3-1-0---3-1-3-1-0---3-1-0-1-----------------------|

BREAK BEFORE NEXT VERSE
Check for Tremolo Pattern
|------|
|------|
|-7----|
|-6----|
|-5----|
|------|

I break free...
|----------------------------------------|
|----------------------------------------|
|-7-7-77---77---77-7-7-77-7-77-7-77-7-7--|
|-6-6-66---66---66-6-6-66-6-66-6-66-6-6--|
|-5-5-55---55---55-5-5-55-5-55-5-55-5-5--|
|-0-0-00-0-00-0-00-0-0-00-0-00-0-00-0-0--|
         .    .           .    .    .
|----------------------------------------|
|----------------------------------------|
|-77---77---77-7-7-77-7-77-7-77-7-7-7-7~-|
|-66---66---66-6-6-66-6-66-6-66-6-6-6-6~-|
|-55---55---55-5-5-55-5-55-5-55-5-5-5-5~-|
|-00-0-00-0-00-0-0-00-0-00-0-00-0-0-0-0~-|
          .    .           .    .

CHORUS
This is where they all come....
|---------------------------------------------------|
|---------------------------------------------------|
|---------------------------------------------------|
|-0~--0~-3-0~---------------------------------------|
|-0~--0~-3-0~---------------------------------------|
|-0~--1~-3-0~---------------------------------------| (x4)

I tore out my naive eyes...
|-----------------------------------------------------------------|
|-----------------------------------------------------------------|
|-----------------------------------------------------------------|
|--0--1--0--8--0----00--3--0--3-----0--1--0--8--0----00--1--0--1--|
|--0--1--0--8--0----00--3--0--3-----0--1--0--8--0----00--1--0--1--|
|--0--1--0--8--0----00--3--0--3-----0--1--0--8--0----00--1--0--1--| (x2)
                    ..     .                         ..     .

Let ending chord ring
|--------|
|--------|
|--------|
|--0~----|
|--0~----|
|--0~----|





Comments


Popular Underoath tabs & chords
A Boy Brushed Red Living In Black And White Bass Tabs
A Moment Suspended In Time Bass Tabs
Desperate Times Desperate Measures 4 Bass Tabs
Everyone Looks So Good From Here 2 Bass Tabs
Down Set Go 1 Tabs
I Dont Feel Very Receptive Today Tabs
In Regards To Myself Intro Tabs
Letting Go Of Tonight Tabs
When The Sun Sleeps Tabs
When The Sun Sleeps 2 Tabs


Song lyrics



↑ Back to top | Tablatures and chords are parodies/interpretations of the original songs. You may use it for private study, scholarship, research or language learning purposes only
© 2014 AZChords.com Contact us | Privacy policy | DMCA | Add/correct tabs | Request tabs | Top 50 tabs