>
 >
I Dont Feel Very Respective Today

I Dont Feel Very Respective Today Guitar Tabs

Underoath - I Dont Feel Very Respective Today chords, tabs, tablatures, lyrics

Guitar lessons | Add/correct | Request | Top 50 tabs Artists:  A B C D E F G H I J K L M N O P Q R S T U V W X Y Z 0-9

I Dont Feel Very Respective Today Guitar Tabs – Underoath

CD, Sheet music, Poster

Do you like I Dont Feel Very Respective Today? Share with your friends now
Bass TabsTabs
It took me a while to figure out this song out 
and i know it's right so here it is.


Drop D

  Example
E|----------------------------------|
B|----------------------------------|
G|----------------------------------|
D|----------------------------------|
A|----------------------------------|
D|----------------------------------|


Intro

  Guitar 1 (part 1)
E|--------------------------------------------|
B|--------------------------------------------|
G|--------------------------------------------|
D|8-8-8-8-8-8-8-8-8-8-8-8-8-8-8-8-8-0-0-0-0-0-|X4
A|8-8-8-8-8-8-8-8-8-8-8-8-8-8-8-8-8-0-0-0-0-0-|
D|8-8-8-8-8-8-8-8-8-8-8-8-8-8-8-8-8-0-0-0-0-0-|
                                    .   . .

  Guitar 2 (part 1)
E|-------------------------------------------------------------|
B|-------------------------------------------------------------|
G|10-10-10-10-10-10-10-10-10-10-10-10-10-10-10-10-10-----------|
D|-x--x--x--x--x--x--x--x--x--x--x--x--x--x--x--x--x-0-0-0-0-0-|X4
A|-8--8--8--8--8--8--8--8--8--8--8--8--8--8--8--8--8-0-0-0-0-0-|
D|---------------------------------------------------0-0-0-0-0-|
                                                     .   . .


  Both Guitars  (part 2)
E|-----------------------------------|
B|-----------------------------------|
G|-----------------------------------|
D|-0-0-0-0-0-0~----------------------|X4
A|-0-0-0-0-0-0~----------------------|
D|-0-0-0-0-0-0~----------------------|
       . .

  Guitar 1 (part 3)
E|--------------------------------------------------|
B|--------------------------------------------------|
G|--------------------------------------------------|
D|-8-8-8-8-8-8-8-8-8-8-8-8--5-5-5-5-5-5-5-5-5-5-5-5-|
A|-8-8-8-8-8-8-8-8-8-8-8-8--5-5-5-5-5-5-5-5-5-5-5-5-|
D|-8-8-8-8-8-8-8-8-8-8-8-8--5-5-5-5-5-5-5-5-5-5-5-5-|

   Continued
E|--------------------------------------------------------------|
B|--------------------------------------------------------------|
G|--------------------------------------------------------------|
D|-0-0-0-0-0-0-0-0-0-0-0-0--10-10-10-10-10-10-10-10-10-10-10-10-|X2
A|-0-0-0-0-0-0-0-0-0-0-0-0--10-10-10-10-10-10-10-10-10-10-10-10-|
D|-0-0-0-0-0-0-0-0-0-0-0-0--10-10-10-10-10-10-10-10-10-10-10-10-|


 
  Guitar 2 (part 3)
E|---------------------------------------------|
B|---------------------------------------------|
G|10-10/9-9-9-9/14--14--14--14--14--14--14--14-|
D|-x--x/x-x-x-x/-x---x---x---x---x---x---x---x-|X3 (Three times
A|-8--8/7-7-7-7/12--12--12--12--12--12--12--12-|
D|---------------------------------------------|

  Then Do This)
E|----------------------------------|
B|----------------------------------|
G|10-10/12-12-12-12/9-9-9-9-9-9-9-9-|
D|-x--x/-x--x--x--x/x-x-x-x-x-x-x-x-|X2
A|-8--8/10-10-10-10/7-7-7-7-7-7-7-7-|
D|----------------------------------|


  Guitar 1 (part 4)
E|----------------------------------|
B|----------------------------------|
G|--------14------------------------|
D|-0-0-0---x-(20-times)-------------|x2
A|-0-0-0--12------------------------|
D|-0-0-0----------------------------|

  Guitar 2 (part 4)
E|----------------------------------|
B|----------------------------------|
G|-------10-------------------------|
D|-0-0-0--x-(20-tomes)--------------|X2
A|-0-0-0--8-------------------------|
D|-0-0-0----------------------------|

  Both Guitars do this
E|----------------------------------|
B|----------------------------------|
G|----------------------------------|
D|-0-0-0----------------------------|
A|-0-0-0----------------------------|
D|-0-0-0----------------------------|



Guitar 1 (part 4)
E|----------------------------------|
B|----------------------------------|
G|--------14------------------------|
D|-0-0-0---x-(20-times)-------------|x2
A|-0-0-0--12------------------------|
D|-0-0-0----------------------------|

  Guitar 2 (part 4)
E|----------------------------------|
B|----------------------------------|
G|-------10-------------------------|
D|-0-0-0--x-(20-times)--------------|X2
A|-0-0-0--8-------------------------|
D|-0-0-0----------------------------|


  Guitar 1 (continued)
E|----------------------------------|
B|----------------------------------|
G|-14----------/12------------------|
D|--x-(15 times)/-x-(5 times)--------|
A|-12----------/10------------------|
D|----------------------------------|

  Guitar 2( Continued) Fallow GUiatr 1
E|----------------------------------|
B|----------------------------------|
G|10--------------------------------|
D|-x-(20 times)---------------------|
A|-8--------------------------------|
D|----------------------------------|


  Guitar 1 (part 5)
E|------------------------------------------------------|
B|------------------------------------------------------|
G|-14-----------/15----------/19----------/17-----------|
D|--x-(24-times)/-x-(8-times)/-x-(6 times)/-x-( 6 tmes)-|
A|-12-----------/13----------/17----------/15-----------|
D|------------------------------------------------------|

 
 Guitar 2 (Part 5)
E|----------------------------------------------------------------|
B|----------------------------------------------------------------|
G|----------------------------------------------------------------|
D|-8-8-8-8-8-8-8-8-8-8-8-8--0-0-0-0-0-0-0-0--10-10-10-10-10-10-10-|X2
A|-8-8-8-8-8-8-8-8-8-8-8-8--0-0-0-0-0-0-0-0--10-10-10-10-10-10-10-|
D|-8-8-8-8-8-8-8-8-8-8-8-8--0-0-0-0-0-0-0-0--10-10-10-10-10-10-10-|


  Guitar 1 (part 6)
E|-----------------------------------------|
B|-----------------------------------------|
G|-7-7/10-10-10-10-10-10-10-10-10-10-10-10-|
D|-x-x/-x--x--x--x--x--x--x--x--x--x--x--x-|X4 let it ring
A|-5-5/-8--8--8--8--8--8--8--8--8--8--8--8-|
D|-----------------------------------------|

  
Guitar 2 (part 6)
E|--------------------------------------------------------------|
B|--------------------------------------------------------------|
G|--------------------------------------------------------------|
D|-0-0-0-0-0-0-0-0-0-0-0-0--10-10-10-10-10-10-10-10-10-10-10-10-|
A|-0-0-0-0-0-0-0-0-0-0-0-0--10-10-10-10-10-10-10-10-10-10-10-10-|
D|-0-0-0-0-0-0-0-0-0-0-0-0--10-10-10-10-10-10-10-10-10-10-10-10-|


  continued
E|--------------------------------------------------------|
B|--------------------------------------------------------|
G|--------------------------------------------------------|
D|-7-7-7-7-7-7-7-7-7-7-7-7--8-8-8-8-8-8--5-5-5-5/10-10-10-|
A|-7-7-7-7-7-7-7-7-7-7-7-7--8-8-8-8-8-8--5-5-5-5/10-10-10-|
D|-7-7-7-7-7-7-7-7-7-7-7-7--8-8-8-8-8-8--5-5-5-5/10-10-10-|



  Guitar 1 (part 7)
E|--------------------------------------------------------------|
B|--------------------------------------------------------------|
G|--------------14-x-14-x-14-x-14-x-14-x-14-x-14-x-14-x-14-x-14-|
D|-0-0-0-0-0-0---x-x--x-x--x-x--x-x--x-x--x-x--x-x--x-x--x-x--x-|
A|-0-0-0-0-0-0--12-x-12-x-12-x-12-x-12-x-12-x-12-x-12-x-12-x-12-|
D|-0-0-0-0-0-0--------------------------------------------------|
       . .

  Continued
E|----------------------------------|
B|----------------------------------|
G|----------------------------------|                      
D|-5-5-5-5--8-8-8-8-----------------|X4 last eight open to zero
A|-5-5-5-5--8-8-8-8-----------------|   and let it ring                  
D|-5-5-5-5--8-8-8-8-----------------|



  Guitar 2 (part 7)
E|------------------------------------------------------------|
B|------------------------------------------------------------|
G|-------------10-x-10-x-10-x-10-x-10-x-10-x-10-x-10-x-10-x-10|
D|-0-0-0-0-0-0--x-x--x-x--x-x--x-x--x-x--x-x--x-x--x-x--x-x--x|
A|-0-0-0-0-0-0--8-x--8-x--8-x--8-x--8-x--8-x--8-x--8-x--8-x--8|
D|-0-0-0-0-0-0------------------------------------------------|
       . .



Continued
E|----------------------------------|
B|----------------------------------|
G|----------------------------------|
D|-5-5-5-5--8-8-8-8-----------------|X4  last eight open to zero
A|-5-5-5-5--8-8-8-8-----------------|    and let it ring.
D|-5-5-5-5--8-8-8-8-----------------|





Comments


Popular Underoath tabs & chords
Without You Im Lost Bass Tabs
Too Bright To See Too Loud To Hear Chords
A Moment Suspended In Time Tabs
Act Of Depression Tabs
Breathing In A New Mentality 2 Tabs
Giving Up Hurts The Most Tabs
In Regards To Myself 1 Tabs
Paper Lung 2 Tabs
Simac Tague Tabs
Reinventing Your Exit 2 Ukulele


Song lyrics



↑ Back to top | Tablatures and chords are parodies/interpretations of the original songs. You may use it for private study, scholarship, research or language learning purposes only
© 2014 AZChords.com Contact us | Privacy policy | DMCA | Add/correct tabs | Request tabs | Top 50 tabs