>
 >
Heart Of Stone

Heart Of Stone Guitar Tabs

Underoath - Heart Of Stone chords, tabs, tablatures, lyrics

Guitar lessons | Add/correct | Request | Top 50 tabs Artists:  A B C D E F G H I J K L M N O P Q R S T U V W X Y Z 0-9

Heart Of Stone Guitar Tabs – Underoath

CD, Sheet music, Poster

Do you like Heart Of Stone? Share with your friends now
Bass TabsTabs
                               HEART OF STONE
                                 UnderOATH
                  (From The 1999 Album ACT OF DEPRESSION)


Gtr I (D A D G B E) - '1'

Palm Mute = *
Artifical harmonics = [4]
Pull off = h
Hold note = ~

Intro   0:07 - 0:12 
|---------------------------------------------|
|---------------------------------------------|
|---------------------------------------------|
|---------------------------------------------|  x2
|---------------------------------------------|
|--5555-8888--4444-7777--3333-6666--2222-5555-|


   0:13 - 0:22
|------------------------------|
|------------------------------|
|------------------------------|
|-000-0-0--0--000-0-0-0--0-6---|  x4
|-000-0-0--0--000-0-0-0--0-6---|
|-000-0-0--0--000-0-0-0--0-6---|
  *** * *     *** * * *  *


   0:23 - 0:31
|---------------------------------|
|---------------------------------|
|---------------------------------|
|-0-1-3-0-3-4-0-4-5-0-5-6-0-6-7---|  x 4
|-0-1-3-0-3-4-0-4-5-0-5-6-0-6-7---|
|-0-1-3-0-3-4-0-4-5-0-5-6-0-6-7---|
  * * * * * * * * * * * * *

   0:32 - 1:11
|-------------------|
|-------------------|
|-------------------|
|-1-0-4-0-1-0-3-0---|  x12
|-1-0-4-0-1-0-3-0---|
|-1-0-4-0-1-0-3-0---|
  * * * * * * * *

      1:12 - 1:17
|-----------------------------------------------------------|
|-----------------------------------------------------------|
|-----------------------------------------------------------|
|-----------------------------------------1-0-4-0-1-0-3-0---|
|-----------------------------------------1-0-4-0-1-0-3-0---|
|-5555-8888-7777-4444-3333-6666-5555-2222-1-0-4-0-1-0-3-0---|
                                          * * * * * * * *

      1:18 - 1:22
|---------------------------------------------------------------|
|---------------------------------------------------------------|
|---------------------------------------------------------------|
|-----------------------------------------1-0-4-0-1-0-0-0-3-0---|
|-----------------------------------------1-0-4-0-1-0-0-0-3-0---|
|-5555-8888-7777-4444-3333-6666-5555-2222-1-0-4-0-1-0-0-0-3-0---|
                                          * * * * * * * * 

      1:23 - 1:34
|-----------------------------------------------------------|
|-----------------------------------------------------------|
|-----------------------------------------------------------|
|-----------------------------------------1-0-4-0-1-0-3-0---|  x2
|-----------------------------------------1-0-4-0-1-0-3-0---|
|-5555-8888-7777-4444-3333-6666-5555-2222-1-0-4-0-1-0-3-0---|
                                          * * * * * * * *

       1:35 - 1:44
|-------------------------------------------------------------------|
|-------------------------------------------------------------------|
|-------------------------------------------------------------------|
|-------------------------------------------------------------------|  x2
|--------101010101010--------999999--------777777--------555554h0---|
|-999999--------------777777--------555555--------444444------------|


       1:45 - 1:54
|----------------------------------------------------------------------|
|----------------------------------------------------------------------|
|----------------------------------------------------------------------|
|----------------------------------------------------------------------| x2
|-------1010h91010h9--------101010999777--------77h577h5-----55544400--|
|-999999-------------777777--------------555555---------4444-----------|


        1:55 - 2:20
|------------------------------|
|------------------------------|
|------------------------------|
|-9~~----7~~---5~~---4---------|  x4
|-9~~10--7~~9--5~~7--4-5-4-0---|
|-9~~----7~~---5~~---4---------|


        2:21 - 2:30
|-------------------------------|
|-4-----4-----4-----------------|
|-x-----x-----x-----------------|
|-2-0-0-2-0-0-2-0-0--7-10-6-9---|  x4
|---0-0---0-0---0-0-------------|
|---0-0---0-0---0-0-------------|
    * *   * *   * *  *  * * *  

   2:31 - 2:35
|----------------|
|-4~~~~~4~~~~~---|
|-x~~~~~x~~~~~---|   
|-2~~~~~2~~~~~---|
|----------------|
|----------------|

   
     2:36 - 2:54
|--------------------------------------------------------------------|
|-----------------------------4-----------------------------4-4-4-4--|
|-----------------------------x-----------------------------x-x-x-x--|
|-2-3-2-0-2-3-2-0-2-3-2-0-2-0-2-2-3-2-0-2-3-2-0-2-3-2-0-2-0-2-2-2-2--| x4
|-2-3-2-0-2-3-2-0-2-3-2-0-2-0---2-3-2-0-2-3-2-0-2-3-2-0-2-0----------|
|-2-3-2-0-2-3-2-0-2-3-2-0-2-0---2-3-2-0-2-3-2-0-2-3-2-0-2-0----------|
  * * * * * * * * * * * * * *   * * * * * * * * * * * * * *


 2:55 - 3:36
|------------|
|------------|
|------------|
|-0~~~~~~~---|
|-0~~~~~~~---|
|-0~~~~~~~---|


 3:37 - 3:39
|------------|
|------------|
|------------|
|-0~~~~~~~---|
|-0~~~~~~~---|
|-0~~~~~~~---|


   3:40 - 3:55
|---------------------------|
|---------------------------|
|---------------------------|
|-3-2-1-0-8-0-3-2-1-0-9-0---|  x7
|-3-2-1-0-8-0-3-2-1-0-9-0---|
|-3-2-1-0-8-0-3-2-1-0-9-0---|
  * * * *   * * * * *   *


   3:56 - 4:00
|---------------------------------------------|
|---------------------------------------------|
|---------------------------------------------|
|----------------0-8-----------------0-9------|  x2
|----------------0-8-----------------0-9------|
|-3333-2222-1111-0-8--3333-2222-1111-0-9------|
                 *                   *

   4:01 - 4:09 
|---------------------------|
|---------------------------|
|---------------------------|
|-3-2-1-0-8-0-3-2-1-0-9-0---|  x5
|-3-2-1-0-8-0-3-2-1-0-9-0---|
|-3-2-1-0-8-0-3-2-1-0-9-0---|
  * * * *   * * * * *   *


  4:10 - 4:13
|-----------------|
|-----------------|
|-----------------|
|-0-0-0-0~~~~~~---|
|-0-0-0-0~~~~~~---|
|-0-0-0-0~~~~~~---|


  4:14 - 4:24
|-------------------------------------------------------------|
|-------------------------------------------------------------|
|-------------------------------------------------------------|
|-1-00-4-3----------------------------------------------------| x4
|-1-00-4-3--3333-6666-4444-7777-7777-10101010-8888-11111111---|
|-1-00-4-3----------------------------------------------------|
    **           
                    

   4:25 - 4:39
|------------------------------------------------------------|
|------------------------------------------------------------|
|------------------------------------------------------------|
|-0-1-4-3----------------------------------------------------| x4
|-0-1-4-3--3333-6666-4444-7777-7777-10101010-8888-11111111---|
|-0-1-4-3----------------------------------------------------|


    4:40 - 5:03
|---------------------------------------------------------------------|
|---------------------------------------------------------------------|
|-----------------------------------------------------------------[2]-|
|-0-0-0-0-1-1-1-1-4-4-4-4-0-3-3-3-3-0-0-0-0-1-1-1-1-4-4-4-4-0-3-0-----| x4
|-0-0-0-0-1-1-1-1-4-4-4-4-0-3-3-3-3-0-0-0-0-1-1-1-1-4-4-4-4-0-3-0-----|
|-0-0-0-0-1-1-1-1-4-4-4-4-0-3-3-3-3-0-0-0-0-1-1-1-1-4-4-4-4-0-3-0-----|
  * * * * * * * * * * * * * * * * * * * * * * * * * * * * * * * * 

   5:04 - 5:31
|-----------------------|
|-----------------------|
|-----------------[2]---|
|-0-0-1-1-4-4-3-0-------|  x8
|-0-0-1-1-4-4-3-0-------|
|-0-0-1-1-4-4-3-0-------|
  * * * * * * * *


 5:32 - 5:33
|-----------|
|-----------|
|-----------|
|-0~~~~-----|
|-0~~~~-----|
|-0~~~~-----|


    5:34 - 5:39
|----------------------------------|
|----------------------------------|
|----------------------------------|
|----------------------------------|  x2
|----------------------------------|
|-555--8--444--7--333--6--222--5---|


    5:40 - 5:43
|---------------------------------------------|
|---------------------------------------------|
|---------------------------------------------|
|---------------------------------------------|  x2
|---------------------------------------------|
|--5555-8888--4444-7777--3333-6666--2222-5555-|

  
|--------|
|--------|
|--------|
|-4--5---|
|-4--5---|
|-4--5---|


End =]
Ya im pretty sure this is 98% correct, i wprked on for a while so ya enjoy!!
- jonathan





Comments


Popular Underoath tabs & chords
Cries Of The Past 2 Bass Tabs
The Changing Of Times Bass Tabs
And I Dreamt Of You 1 Tabs
Illuminator 1 Tabs
Impact Of Reason 1 Tabs
In Regards To Myself 4 Tabs
Its Dangerous Business Walking Out Your Front Door 1 Tabs
Never Meant To Break Your Heart 1 Tabs
Smic Tague Tabs
Writing On The Walls 2 Tabs


Song lyrics



↑ Back to top | Tablatures and chords are parodies/interpretations of the original songs. You may use it for private study, scholarship, research or language learning purposes only
© 2014 AZChords.com Contact us | Privacy policy | DMCA | Add/correct tabs | Request tabs | Top 50 tabs