» » »

Underoath, Giving Up Hurts The Most Tabs (ver.1)

Artists:  A B C D E F G H I J K L M N O P Q R S T U V W X Y Z # 

Giving Up Hurts The Most Tabs (ver.1)

Underoath Tabs
 Rating:
4/5 (4 votes)
Giving Up Hurts The Most lessons Tabs too difficult? Try these video lessons and learn fast
1
                Ok i got this mostly from someone on hotesttabs but he couldn't get a few parts, so here 
am to fill in the gaps.


Intro
E|----------------------------------------------|
B|----------------------------------------------|
G|----------------------------------------------|
D|----------------------------------------------|
A|----------------------------------------------|
D|000000-5h00000-3333333-6666666-555555-2222222-|


E|-----------|
B|-----------|
G|-----------|
D|1--8--2--7-|
A|1--8--2--7-|
D|1--8--2--7-|


E|---------------------|
B|---------------------|
G|---------------------|
D|0--0-0-0--0----------|
A|0--0-0-0--0--6-5-3-5-|
D|0--0-0-0--0----------|
PM|--m-m---------------|


E|---------------------|
B|---------------------|
G|---------------------|
D|0--0-0-0--0----------|
A|0--0-0-0--0--3-3-3-5-|
D|0--0-0-0--0----------|
PM|--m-m---------------|

After playing this the first time, you do the first ending, after the second, you play 
second inning.....etc.
E|-----------------------------------|
B|-----------------------------------|
G|-----------------------------------|
D|0-0-0-0--0-0-0-0--0-0-0-0--0-0-0-0-|
A|0-0-0-0--0-0-0-0--0-0-0-0--0-0-0-0-|
D|0-0-0-0--0-0-0-0--0-0-0-0--0-0-0-0-|

1st Ending
E|--------------------------------------|
B|--------------------------------------|
G|---------15h17h19----------15h17h19---|
D|15h17h19----------15h17h19------------|repeat
A|--------------------------------------|
D|--------------------------------------|

2nd Ending
E|-----------------------------------------|
B|15----13----11------------------10-11-10-|
G|---10----10----10-------9-10-12----------|
D|------------------10-12------------------|
A|-----------------------------------------|
D|-----------------------------------------|

3rd Ending

E|----------------------------------------|
B|----------------------------------------|
G|---2---3----5--5-3-2--------------------|
D|-00--00--000--0-------------------------|
A|----------------------------------------|
D|----------------------------------------|

E|---------------------------------------|
B|---------------------------------------|
G|---------------------------------------|
D|---------------------------------------|
A|00000-88888-77777--------77777---------|
D|------------------555555-------333333--|

E|-----------------------------------------------|
B|-----------------------------------------------|
G|-----------------------------------------------|
D|-----------------------------------------------|
A|7-7/8-8/10-10/12--7777777-8888888-333333333333-|
D|-----------------------------------------------|


E|--------------------------------|
B|--------------------------------|
G|--------------------------------|
D|7-7-----------5-5-----------3-3-|
A|7-7-777777777-5-5-777777777-3-3-|
D|7-7-----------5-5-----------3-3-|

E|----------------------------------------|
B|----------------------------------------|
G|----------------------------------------|
D|----------------------------------------|
A|7777777777-8888888888-3333333333--------|
D|----------------------------------------|

E|--------------------|---------------------|
B|--------------------|---------------------|
G|2-----2-------------|2--------------------|
D|2-2-3---3-2-3--3-3-3|2-2-3-5-3-2-3--3-3-3-|
A|0-----------3--3-3-3|0-----------3--3-3-3-|
D|------------3--3-3-3|------------3--3-3-3-|
PM|-m-m---m-m----m-m--|--m-m---m-m----m-m---|

E|--------------|--------------|
B|--------------|--------------|
G|-2-2----------|--------------|
D|-2-2-2-5-3-2-3|3-3-2-3-2-0-2-|
A|-0-0----------|3-3-----------|
D|--------------|3-3-----------|
PM|m-m---m-m-----m-m---m-m-----|

E|----------------------------------------|
B|----------------------------------------|
G|----------------------------------------|
D|7--(7)-5-5--(5)-3-3--(3)-5-5------------|
A|7--(7)-5-5--(5)-3-3--(3)-5-5------------|
D|7--(7)-5-5--(5)-3-3--(3)-5-5------------|
PM|---m--------m--------m-----------------|


E|-----------------------------------------|
B|-----------------------------------------|
G|-----------------------------------------|
D|-----------------------------------------|
A|-7-10-8-7-7-3-8-7-5-3-8-7-8-7------------|
D|-----------------------------------------|
PM|m-m-m-m-m-m-m-m-m-m-m-m-m-m-m-----------|


E|------------------------------------------|
B|------------------------------------------|
G|------------------------------------------|
D|3--3-3-3--3-3-5--5-5-5--5-5------7------7-|
A|3--3-3-3--3-3-5--5-5-5--5-5------7------7-|
D|3--3-3-3--3-3-5--5-5-5--5-5-7777-7--777-7-|
PM|--m-m----m-m----m-m----m-m-mmmm----mmmm--|

E|-------------------------|
B|-------------------------|
G|-------------------------|
D|----------7------------7-|
A|----------7------------7-|
D|-77777777-7--777777777-7-|
PM|mmmmmmmm----mmmmmmmmm---|

E|------------------------|----------------------|
B|------------------------|----------------------|
G|2--4-5-7----------------|2--4-5-7--------------|
D|2--4-5-7-3-2-0-------0-2|2--4-5-7-3--3-3-3/5-5-|
A|0--2-3-5-3-----3-2-3----|0--2-3-5-3--3-3-3/5-5-|
D|---------3--------------|---------3--3-3-3/5-5-|
PM|------------------------------------m-m-------|

E|-------------------------|-------------5-5-|
B|-------------------------|-----------------|
G|2--4-5-7-----------------|2--4-5-7---------|
D|2--4-5-7-3-2-0-----0-2-3-|2--4-5-7-3-------|
A|0--2-3-5-3-----3-2-------|0--2-3-5-3-------|
D|---------3---------------|---------3-------|
Those are all the little transitions into the next riff. After you play all four, you go 
to play the second one.

E|-----------------------------------------|
B|-----------------------------------------|
G|-----------------------------------------|
D|-----------------------------------------|
A|-000000000-222-333333-55-----------------|
D|-------------------------3333333-5555555-|
PM|mmmmmmmmm-mmm-mmmmmm-mm-mmmmmmm-mmmmmmm-|

Solo
For this, I'm gonna have a "*" as a symbol for the really fast picking. You just gotta 
for the timing.
E|------------------------------------|
B|------------------------------------|
G|------------------------------------|
D|5***********-7*********-10**********
A|------------------------------------|
D|------------------------------------|

E|----------------------------------------|
B|----------------------------------------|
G|----------------------------------------|
D|14*******-12*******-14***-12****-10**---|
A|----------------------------------------|
D|----------------------------------------|

E|--------------------------------------|
B|-----------------------------a.f.-----|
G|-----------------------7-7-7-7b(9)7---|
D|5*********-7**********--------------7-|
A|--------------------------------------|
D|--------------------------------------|

E|5*******-7*******-8*******
B|--------------------------|
G|--------------------------|
D|--------------------------|
A|--------------------------|
D|--------------------------|

|E|5********-7***-8***/15*******---|
B|---------------------------------|
G|---------------------------------|
D|---------------------------------|repeat
A|---------------------------------|
D|---------------------------------|

Then (use fast picking)
E|---------------------|
B|---------------------|
G|---------------------|
D|8-7-5-3-8-7-5-7-5-3--|
A|---------------------|
D|---------------------|

With fast picking
E|---------------------------------|
B|---------------------------------|
G|3---2-----2------8--7--8-7h8p7---|
D|-------3----3--8---------------8-|
A|---------------------------------|
D|---------------------------------|

Pause, then
E|--------------------------------------|
B|--------------------------------------|
G|--------------------------------------|
D|8--8-8-8--8-8-8--8-8-8-fast picking!--|
A|8--8-8-8--8-8-8--8-8-8-8---7----3---0-|
D|8--8-8-8--8-8-8--8-8-8----------------|


E|-------|-------|----------|-------|-------|------------|
B|-------|-------|----------|-------|-------|------------|
G|-------|-------|----------|-------|-------|------------|
D|-0--0--|0-0-0-0|----------|-------|-------|------------|
A|-0--0--|0-0-0-0|10-8-7-8--|8-7-5-7|-------|------------|
D|-0--0--|0-0-0-0|----------|-------|7-5-3-5|-12p10p0h12-|
PM|m--m---m-m-m-m----------------------------------------|


E|--------|-------|--------|----------|
B|--------|-------|--------|----------|
G|--------|-------|--------|----------|
D|--------|-------|--------|----------|
A|10-8-7-8|8-7-5-7|10-8-7-8|12-10-8-10|
D|--------|-------|--------|----------|
reverse these


|--------|-----------|-----------|
B|-------|-----------|-----------|
G|-------|-----------|-----------|
D|-85/85-|-74/74-----|-107/107---|
A|-85/85-|-74/74-----|-107/107---|
D|-85/85-|-74/74-----|-107/107---|

        2x
E|--------|--------|--------------|
B|--------|--------|--------------|
G|--------|--------|--------------|
D|--------|--------|--------------|
A|--------|--------|------3-------|
D|-00000-2|-00000-3|33333-3-------|
PM|m-m---m-m---m-m----------------|


E|-------------------------|
B|-------------------------|
G|-------------------------|
D|-0-2-3-0-2-3-0-3-8-5-7-3-|
A|-0-2-3-0-2-3-0-3-8-5-7-3-|
D|-0-2-3-0-2-3-0-3-8-5-7-3-|
PM|m-m---m-m---m-m---------|


E|-------------------------|
B|-------------------------|
G|-------------------------|
D|-2-2-2-2-2-0-0-5-0-7-3p0-|
A|-2-2-2-2-2---------------|
D|-2-2-2-2-2---------------|
PM|m-m-m-m-m-m-m---m-------|

E|------------------------|----------------------|
B|------------------------|----------------------|
G|------------------------|----------------------|
D|------------------------|----------------------|
A|-----3-3-----3p0-----3p0|----5-5p0----7-7----8-|
D|-0-0-----0-0-----0-0----|0-0-------0-0----0-0--|
PM|m-m-----m-m-----m-m-----m-m-------m-m----m-m--|

E|-----------|------------|
B|-----------|------------|
G|-----------|------------|
D|-2222222-2-|-33333333-3-|
A|-2222222-2-|-33333333-3-|
D|-2222222-2-|-33333333-3-|
PM|mmmmmmm-----mmmmmmmm---|

Outro
E|----------------------------------------|
B|--------------------------------3-------|
G|--------------------5-----5-------------|
D|--3---2---------------3-----3-------3---|
A|----------3---3-0-1-----5-----5-------5-|
D|0---0---0---0---------------------------|
            
Submit corrections

comments powered by Disqus
↑ Back to top | Underoath Tabs for Giving Up Hurts The Most. Lyrics for acoustic guitar and electric guitar. 1 Tablatures and chords are parodies/interpretations of the original songs. You may use it for private study, scholarship, research or language learning purposes only