» » »

Everyone Looks So Good From Here Bass tabs (ver.2)

Artists:  A B C D E F G H I J K L M N O P Q R S T U V W X Y Z # 

Everyone Looks So Good From Here Bass tabs (ver.2)

Underoath
Rating:
0/5 (0 votes)

Tabs too difficult? Try these video lessons and learn fast.
                Tuning: Drop D


|---------|
|---------|
|-------7-|
|-7-0-5---|x16

|----------|
|----------|
|----------|
|-7-0-5-0--|x8


|---------------------|
|---------------------|
|---------------------|
|-0--/12--8-7-0-5-0-3-|x8


|--------|
|--------|
|--------|
|-0--0---|x3

|---------------|
|---------------|
|---------------|
|-0--0---0--0---|


*Listen for timing.
|------------------------------------|
|------------------------------------|
|------------------------------------|
|-0-0--0-0--00--0-0-0-0--0-0--00-0-0-|x2

|-----------------------|
|-----------------------|
|-----------1~----------|
|-0~--------------5~----|

*Listen for timing.
|------------------------------------|
|------------------------------------|
|------------------------------------|
|-0-0--0-0--00--0-0-0-0--0-0--00-0-0-|x4

|------------|
|------------|
|------------|
|-3-3---3-3--|x4


|---------------------|
|---------------------|
|---------------------|
|-3~--------2~--------|x8


|---------|
|---------|
|-------7-|
|-7-0-5---|x16
            
Tabs too difficult? Try these video lessons and learn fast.




comments powered by Disqus
↑ Back to top | Tablatures and chords are parodies/interpretations of the original songs. You may use it for private study, scholarship, research or language learning purposes only