» » »

Underoath, Everyone Looks So Good From Here Tabs (ver.1)

Artists:  A B C D E F G H I J K L M N O P Q R S T U V W X Y Z # 

Everyone Looks So Good From Here Tabs (ver.1)

Underoath Tabs
Rating:
0/5 (0 votes)
Everyone Looks So Good From Here lessons Tabs too difficult? Try these video lessons and learn fast
                My personal favorite off of Define the Great Line. The whole song is a break down, so have fun :)

Tuning is Dropped D

0:00 - 0:16

e|-------------------------------0--------------------------------------|
B|-------------------------------6--------------------------------------|
G|-------------------------------9--------------------------------------|
D|-7p0-5-3-7p0-5-3-7p0-5-3-7p0-5----------------------------------------|
A|-7p0-5-7-7p0-5-7-7p0-5-7-7p0-5----------------------------------------|
D|-7p0-5---7p0-5---7p0-5---7p0-5----------------------------------------|

e|-------------------------------0--------------------------------------|
B|-------------------------------6--------------------------------------|
G|-------------------------------9--------------------------------------|
D|-7p0-5-3-7p0-5-3-7p0-5-3-7p0-5----------------------------------------|
A|-7p0-5-7-7p0-5-7-7p0-5-7-7p0-5----------------------------------------|
D|-7p0-5---7p0-5---7p0-5---7p0-5----------------------------------------|

e|-------------------------------0--------------------------------------|
B|-------------------------------6--------------------------------------|
G|-------------------------------9--------------------------------------|
D|-7p0-5-3-7p0-5-3-7p0-5-3-7p0-5----------------------------------------|
A|-7p0-5-7-7p0-5-7-7p0-5-7-7p0-5----------------------------------------|
D|-7p0-5---7p0-5---7p0-5---7p0-5----------------------------------------|

e|----------------------------------------------------------------------|
B|----------------------------------------------------------------------|
G|----------------------------------------------------------------------|
D|-7p0-5-3-7p0-5-3-7p0-5-3-12/0-----------------------------------------|
A|-7p0-5-7-7p0-5-7-7p0-5-7-12/0-----------------------------------------|
D|-7p0-5---7p0-5---7p0-5---12/0-----------------------------------------|

0:17 - 0:30

e|----------------------------------------------------------------------|
B|----------------------------------------------------------------------|
G|----------------------------------------------------------------------|
D|-7p0-5p0-7p0-5p0-7p0-5p0-7p0-5p0-7p0-5p0-7p0-5p0-7p0-5p0-7p0-5p0-0~---|
A|-7p0-5p0-7p0-5p0-7p0-5p0-7p0-5p0-7p0-5p0-7p0-5p0-7p0-5p0-7p0-5p0-0~---|
D|-7p0-5p0-7p0-5p0-7p0-5p0-7p0-5p0-7p0-5p0-7p0-5p0-7p0-5p0-7p0-5p0-0~---|

0:31 - 0:35

The strumming shown here is off, but you guys get the idea :)

e|-0-0-0-0-0-0-0-0-0-0-0-0-0-0-0--0--0--0--0--0--0--0--0--0--0--0---|
B|-6-6-6-6-6-6-6-6-6-6-6-6-6-6-10-10-10-10-10-10-17-17-17-17-17-17--|
G|------------------------------------------------------------------|
D|------------------------------------------------------------------|
A|------------------------------------------------------------------|
D|------------------------------------------------------------------|

0:36 - 0:57

e|----0---------------------0-----------------0-----------------0----------0-|
B|----6---------------------6-----------------6-----------------6----------6-|
G|----9---------------------9-----------------9-----------------9----------9-|
D|0/7---0-8-7p0-5p0-3h5-0/7---0-8-7p0-5p0-0/7---0-8-7p0-3h5-0/7---0-8-7p0-5--|
A|0/7---0-8-7p0-5p0-3h5-0/7---0-8-7p0-5p0-0/7---0-8-7p0-3h5-0/7---0-8-7p0-5--|
D|0/7---0-8-7p0-5p0-3h5-0/7---0-8-7p0-5p0-0/7---0-8-7p0-3h5-0/7---0-8-7p0-5--|

e|----0---------------------0-----------------0-----------------0----------0-|
B|----6---------------------6-----------------6-----------------6----------6-|
G|----9---------------------9-----------------9-----------------9----------9-|
D|0/7---0-8-7p0-5p0-3h5-0/7---0-8-7p0-5p0-0/7---0-8-7p0-3h5-0/7---0-8-7p0-5--|
A|0/7---0-8-7p0-5p0-3h5-0/7---0-8-7p0-5p0-0/7---0-8-7p0-3h5-0/7---0-8-7p0-5--|
D|0/7---0-8-7p0-5p0-3h5-0/7---0-8-7p0-5p0-0/7---0-8-7p0-3h5-0/7---0-8-7p0-5--|

0:58 - 1:19

Figure out the strumming yourself

e|-0-0--0-0-0-0-0--0-0--0-0-0-0-0-----------------------------------|
B|-4-4--4-4-4-4-4--4-4--4-4-4-4-4-----------------------------------|
G|-7-7--7-7-7-7-7--7-7--7-7-7-7-7-----------------------------------|x A lot
D|------------------------------------------------------------------|
A|------------------------------------------------------------------|
D|------------------------------------------------------------------|

1:20 - 1:29

e|---------------------------------------------------------------------------|
B|---------------------------------------------------------------------------|
G|---------------------------------------------------------------------------|
D|-0~-0~-8~-5~--0~-0~-8~-5~--------------------------------------------------|
A|-0~-0~-8~-5~--0~-0~-8~-5~--------------------------------------------------|
D|-0~-0~-8~-5~--0~-0~-8~-5~--------------------------------------------------|

1:30 - 1:40

e|-------------------------------------------------------------------|
B|-------------------------------------------------------------------|
G|-------------------------------------------------------------------|
D|-0-0--0-0-0-0--0-0-0-0--0-0-0-0--0-0-------------------------------|
A|-0-0--0-0-0-0--0-0-0-0--0-0-0-0--0-0-------------------------------|
D|-0-0--0-0-0-0--0-0-0-0--0-0-0-0--0-0-------------------------------|

e|------------------------------------------------------------------------|
B|------------------------------------------------------------------------|
G|------------------------------------------------------------------------|
D|-0-0--0-0-0-0--0-0-0-0--0-0-0-0-12/0------------------------------------|
A|-0-0--0-0-0-0--0-0-0-0--0-0-0-0-12/0------------------------------------|
D|-0-0--0-0-0-0--0-0-0-0--0-0-0-0-12/0------------------------------------|

1:41 - 1:52

e|-------------------------------------------------------------------|
B|-------------------------------------------------------------------|
G|-------------------------------------------------------------------|
D|-0-0--0-0-0-0--0-0-0-0--0-0-0-0--0-0-------------------------------|x2
A|-0-0--0-0-0-0--0-0-0-0--0-0-0-0--0-0-------------------------------|
D|-0-0--0-0-0-0--0-0-0-0--0-0-0-0--0-0-------------------------------|
pm . .  . . . .  . . . .  . . . .  . .

1:53 - 2:05

e|-0-0--0-0~--0-0--0-0~--0-0--0-0~--0-0--0-0~----------------------|
B|-6-6--6-6~--6-6--6-6~--6-6--6-6~--6-6--6-6~----------------------|
G|-9-9--9-9~--9-9--9-9~--9-9--9-9~--9-9--9-9~----------------------|
D|-0-0--0-0~--0-0--0-0~--0-0--0-0~--0-0--0-0~----------------------|
A|-0-0--0-0~--0-0--0-0~--0-0--0-0~--0-0--0-0~----------------------|
D|-0-0--0-0~--0-0--0-0~--0-0--0-0~--0-0--0-0~----------------------|

2:06 - 2:46

e|----------------------------------------0-----------------------------|
B|----------------------------------------6-----------------------------|
G|----------------------------------------9-----------------------------|
D|-0~--8~--0~--8~--0~--8~--0~--8~-0-0-0-0---8---------------------------|
A|-0~--8~--0~--8~--0~--8~--0~--8~-0-0-0-0---8---------------------------|
D|-0~--8~--0~--8~--0~--8~--0~--8~-0-0-0-0---8---------------------------|
pm                                . . . .

e|--------------------------------------------------------------------------|
B|--------------------------------------------------------------------------|
G|--------------------------------------------------------------------------|
D|-0~--8~--0~--8~-x-x-x-x-x-x--0~--8~--0~--8~-------------------------------|
A|-0~--8~--0~--8~-x-x-x-x-x-x--0~--8~--0~--8~-------------------------------|
D|-0~--8~--0~--8~-x-x-x-x-x-x--0~--8~--0~--8~-------------------------------|

2:47 - 2:56

e|-------------------------------0--------------------------------------|
B|-------------------------------6--------------------------------------|
G|-------------------------------9--------------------------------------|
D|-7p0-5-3-7p0-5-3-7p0-5-3-7p0-5----------------------------------------|
A|-7p0-5-7-7p0-5-7-7p0-5-7-7p0-5----------------------------------------|
D|-7p0-5---7p0-5---7p0-5---7p0-5----------------------------------------|

e|-------------------------------0--------------------------------------|
B|-------------------------------6--------------------------------------|
G|-------------------------------9--------------------------------------|
D|-7p0-5-3-7p0-5-3-7p0-5-3-7p0-5----------------------------------------|
A|-7p0-5-7-7p0-5-7-7p0-5-7-7p0-5----------------------------------------|
D|-7p0-5---7p0-5---7p0-5---7p0-5----------------------------------------|

That's the song boys and girls... have fun :)
            
Submit corrections

comments powered by Disqus
↑ Back to top | Underoath Tabs for Everyone Looks So Good From Here. Lyrics for acoustic guitar and electric guitar. Tablatures and chords are parodies/interpretations of the original songs. You may use it for private study, scholarship, research or language learning purposes only