» » »

Desperate Times Desperate Measures Bass tabs (ver.3)

Artists:  A B C D E F G H I J K L M N O P Q R S T U V W X Y Z # 

Desperate Times Desperate Measures Bass tabs (ver.3)

Underoath
Rating:
0/5 (0 votes)

Tabs too difficult? Try these video lessons and learn fast.
                "this is my first tab, so it might not look the greatest, but the song is really easy and 
pretty sure it's almost perfect. Some of the timing's probably wrong, so try to figure 
out for yourself if it is.

Album:Lost In The Sound Of Separation
Length:3:27
----------------------------------------------------
Intro (0:09)
E|--------------------------------------------------------------|
D|--------------------------------------------------------------|
A|--------------------------------------------------------------|
D|00000--00000--------------------------------------------------|

Verse (0:11) x8
E|-----------------------------------------------------------|
D|7------7---------------------------------------------------|
A|-----------------------------------------------------------|
D|-8-00---8-030----------------------------------------------|

Verse Pt.2/Chorus (0:32) x5
E|-------------------------------------------------------------------------|
D|-------------------------------------------------------------------------|
A|-------------------------------------------------------------------------|
D|0(x12)-10(x8)-3(x8)-5(x12)-1(x8)-----------------------------------------|

Verse (1:17) x3

Breakdown (1:25) x8
E|------------------------------------------------------------|
D|------------------------------------------------------------|
A|------------------------------------------------------------|
D|-00-00-00---------------------------------------------------|


E|-------------------------------------------------------|
D|-------------------------------------------------------|
A|-------------------------------------------------------|
D|-0-8-(x4)----------------------------------------------|

Chorus (1:51) x4

Outro (2:33) x7
E|------------------------------------------------------------------------------------|
D|------------------------------------------------------------------------------------|
A|------------------------------------------------------------------------------------|
D|-00-00-0000-----1010-1010-1010101010-33-33-3333-----55-55-5555-----11-11-1111-------|

And there it is, I'm sure it kinda sucks but think what you will & rate & comment.
"            
Tabs too difficult? Try these video lessons and learn fast.




comments powered by Disqus
↑ Back to top | Tablatures and chords are parodies/interpretations of the original songs. You may use it for private study, scholarship, research or language learning purposes only