» » »

Desperate Times Desperate Measures Tabs (ver.4)

Artists:  A B C D E F G H I J K L M N O P Q R S T U V W X Y Z # 

Desperate Times Desperate Measures Tabs (ver.4)

Underoath
Rating:
0/5 (0 votes)

Hard to play? Try these video lessons and learn fast.
                "(3)

                         UNDEROATH
             DESPERATE TIMES, DESPERATE MEASURES
            (not sure on lead guitar during chorus)
      please comment, rate, and see if there are any errors

              [INTRO]
e------------------------------------------|
b------------------------------------------|
g------------------------------------------|
d--7----7------------7-----7-----xxxx-xxxx-|
a--------------------------------xxxx-xxxx-|
D---8-0---8-0--5p0-3---8-0---8-0-xxxx-xxxx-|

             [VERSE]
e----------------------------------------|
b----------------------------------------|
g----------------------------------------|
d--7----7------------7-----7-------------| x2
a----------------------------------------|
D---8-0---8-0--5p0-3---8-0---8-0-xx5-xx3-|

e----------------------------------------|
b----------------------------------------|
g--7----7-----7-10--7----7---------------|
d----------------------------------------| x2
a---8-0---8-0--------8-0---8-0---3333----|
D----------------------------------------|

             [PRECHORUS]

e---------------------------------------------------------------------|
b---------------------------------------------------------------------|
g---------------------------------------------------------------------| x2
d---------------------------------------------------------------------|
a-555555555555555-33333333--------------------------------------------|
D--------------------------33333333-5555555555555555-1111111111111111-|

e-5x20--3x20--12x20--10x20---5x20--3x20--12x20--13x20-----------------|
b---------------------------------------------------------------------|
g---------------------------------------------------------------------| x1
d---------------------------------------------------------------------|
a---------------------------------------------------------------------|
D---------------------------------------------------------------------|

             [CHORUS]
e---------------------------------------------------------------------|
b---------------------------------------------------------------------|
g---------------------------------------------------------------------| x2
d-7777777777777777-55555555-33333333-555555555555555-1111111111111111-|
a-5555555555555555-33333333-33333333-555555555555555-1111111111111111-|
D---------------------------33333333-555555555555555-1111111111111111-|

e----------5p0-    ----------8p0-    ----------5p0-    ---------8-6-5-|
b-5p06p08p0---- x2 -5p06p08p0---- x2 -5p06p08p0---- x2 -5h6-5-6-------|
g---------------------------------------------------------------------|
d---------------------------------------------------------------------|
a---------------------------------------------------------------------|
D---------------------------------------------------------------------|


             [VERSE]
e---------------------|
b---------------------|
g---------------------|
d--7----7-------------| x4
a---------------------|
D---8-0---8-0--5p0-3--|


              [BREAKDOWN]
e-------------------------------------------|
b-----------------------------------------6-|
g-----------------------------------------9-|
d-00-00-000--00-00-000--00-00-000--00-00----| x2
a-00-00-000--00-00-000--00-00-000--00-00----|
D-00-00-000--00-00-000--00-00-000--00-00----|

e-------------------------|
b---6~~---6~~---6~~---6~~-|
g---9b~---9b~---9b~---9b~-|
d-0~----0~----0~----0~----|
a-0~----0~----0~----0~----|
D-0~----0~----0~----0~----|

           [PRECHORUS]
e---------------------------------------------------------------------|
b---------------------------------------------------------------------|
g---------------------------------------------------------------------| x2
d---------------------------------------------------------------------|
a-555555555555555-33333333--------------------------------------------|
D--------------------------33333333-5555555555555555-1111111111111111-|

e-5x20--3x20--12x20--13x20--------------------------------------------|
b---------------------------------------------------------------------|
g---------------------------------------------------------------------| x1
d---------------------------------------------------------------------|
a---------------------------------------------------------------------|
D---------------------------------------------------------------------|

           [CHORUS]
e---------------------------------------------------------------------|
b---------------------------------------------------------------------|
g---------------------------------------------------------------------| x2
d-7777777777777777-55555555-33333333-555555555555555-1111111111111111-|
a-5555555555555555-33333333-33333333-555555555555555-1111111111111111-|
D---------------------------33333333-555555555555555-1111111111111111-|

e----------5p0-    ----------8p0-    ----------5p0-    ---------8-6-5-|
b-5p06p08p0---- x2 -5p06p08p0---- x2 -5p06p08p0---- x2 -5h6-5-6-------|
g---------------------------------------------------------------------|
d---------------------------------------------------------------------|
a---------------------------------------------------------------------|
D---------------------------------------------------------------------|

            [OUTRO]

e----------|
b----------|
g----------| feedback
d-0~~~~~~~~
a-0~~~~~~~~
D-0~~~~~~~~

e------------------------------------|
b------------------------------------|
g------------------------------------|  till end of song
d------------------------------------|
a------------------------------------|
D-8s12-12--8s12-12--8s12-12--8s12-12-|
"            
Hard to play? Try these video lessons and learn fast. | Correct




comments powered by Disqus
↑ Back to top | Tablatures and chords are parodies/interpretations of the original songs. You may use it for private study, scholarship, research or language learning purposes only