» » »

Desolate Earth / The End Is Here Bass tabs (ver.1)

Artists:  A B C D E F G H I J K L M N O P Q R S T U V W X Y Z # 

Desolate Earth / The End Is Here Bass tabs (ver.1)

Underoath
Rating:
0/5 (0 votes)

Hard to play? Try these video lessons and learn fast.
                		  Desolate Earth: The End Is Here - Underoath


 Tuning:Drop D

 (3.01)
G|-------------------------------------------------------------|
D|-------------------------------------------------------------|
A|5-5-5-5-55-5--5-5-5-5-55-5--5-5-5-5-55-5--5-5-5-5-55-5-------|
D|-------------------------------------------------------------|

G|-------------------------------------------------------------|
D|-------------------------------------------------------------|
A|5/8-8-8-8-88-8--8-8-8-8-88-8--3-3-3-3-33-3--3-3-3-3-33-3-----|
D|-------------------------------------------------------------|

G|---------------------------------|
D|---------------------------------|
A|1-1-1-1-11-1--1-1-1-1-11-1-------|
D|---------------------------------|

G|-----------------------------------------------------------|
D|-----------------------------------------------------------|
A|5-5-5-5-55-5--5-5-5-5-55-5--8-8-8-8-88-8--8-8-8-8-88-8-----|
D|-----------------------------------------------------------|

G|-----------------------------------------------------------|
D|-----------------------------------------------------------|
A|3-3-3-3-33-3--3-3-3-3-33-3--1-1-1-1-11-1--1-1-1-1-11-1-----|
D|-----------------------------------------------------------|

G|------------|
D|------------|
A|------------|
D|0-0~--------|
            
Hard to play? Try these video lessons and learn fast. | Correct




comments powered by Disqus
↑ Back to top | Tablatures and chords are parodies/interpretations of the original songs. You may use it for private study, scholarship, research or language learning purposes only