» » »

Cries Of The Past Tabs (ver.1)

Artists:  A B C D E F G H I J K L M N O P Q R S T U V W X Y Z # 

Cries Of The Past Tabs (ver.1)

Underoath
Rating:
0/5 (0 votes)

Hard to play? Try these video lessons and learn fast.
                Play along with the cd for strumming patterns and counts.


D -7-7-7-------|-3-3-3-------
a --------7----|--------3----  Clean
d ------9---9--|------5---5--

D -7-7---10-10---3-3--3/\/- This riff is repeated, but strumming 
a -7-7---10-10---3-3--3/\/- pattern changes.

D -0-0-0-0--0-0-0-0--8h10-6-
a -------------------8h10-6-
pm.................

D -----------------------
a -3-3-3-3-x8--7-7-7-7-x8

D ------------------------------------------------------
a -3-3-3-3-x3---------------------------------7-7-7-7-x3
d ------------4-4-4-4-5-5-5-5-7-7-7-7-5-5-5-5-----------

D -----------------------
a -3-3-3-3-x8--7-7-7-7-x8

D -0-0-0-0-----0-0-0-0-----0-0-0-0-----0-0-0-0-0-0----------
a ---------8h0---------7h0---------5h0-------------8h10h8h0-

D -8-8-8-8-8-8-7-7-7-7-7-7-8-8-8-8-8-8-0-0-0-7\-0-0-0-7\-3/8-
a -8-8-8-8-8-8-7-7-7-7-7-7-8-8-8-8-8-8-0-0-0-----------------

D -----------------------------------
a -----------------------------------
d -3-3-3-3-5-5-5-5-7-7-7-7-5-5-5-5-x2

D -----------------------------------------------------------------
a -----------------------------------------------------------------
d -0-0-0-0-2-2-2-2-3-3-3-3-0-0-0-0-3-3-3-3-2-2-2-2-0-0-0-0-2-2-2-2-

D -----------------------------------------------------------------
a -----------------------------------------------------------------
d -0-0-0-0-0-0-0-0-7-7-7-7-7-7-7-7-0-0-0-0-0-0-0-0-8-8-8-8-8-8-8-8-

D -8-8-8-8-8-8-7-8-5-5-5-5-5-5-7-5-
a -8-8-8-8-8-8-7-8-5-5-5-5-5-5-7-5-

D -------------------------------------------------
a -------------------------------------------------
d -0-0-0-0-0-0-0-0-7-7-7-7-7-7-7-7-0-0-0-0-0-0-0-0-

D -0-0--0-0-0-0--0-0-7h8h7-5-
a -0-0--0-0-0-0--0-0-7h8h7-5-

D -7-7-7-7-8-8-8-8-7-7-7-7-5-5-5-5-7-8-7-5-0-
a ---------------------------------7-8-7-5-0-

D -0-0-0--0-0-0-0-------------
a ----------------------------  Clean then distortion
d ----------------5h0-2h0-3h0-

D -------------------------------------------------
a -------------------------------------------------
d -7-7-7-7-5-5-5-5-3-3-3-3-0-0-0-0-2-2-2-2-2-2-2-2-

D -0-0-0-0-2-2-2-2-3-3-3-3-5-5-5-5-
a ---------------------------------

D ----------------------------------------------------
a ----------------------------------------------------
d -5-5-5-5-3-3-3-3-2-2-2-2-0-0-0-0-2-2-2-2--7-5-5-5-5-

D ----------------------------------0-
a ----------------------------------0-
d -7-7-7-7-5-5-5-5-3-3-3-3-0-0-0-0----
            
Hard to play? Try these video lessons and learn fast. | Correct




comments powered by Disqus
↑ Back to top | Tablatures and chords are parodies/interpretations of the original songs. You may use it for private study, scholarship, research or language learning purposes only